Cifra Club

Down

Angels & Airwaves

Cifra: Principal (violão e guitarra)
Tom: B
Standard tuning

E|---------------------------|-----------------------|
B|----------7--7-------7--7--|--7--7---7--7----------|
G|---------------------------|-----------------------|
D|------9----------9---------|-----------------------|
A|---------------------------|-----------------------|
E|---------------------------|-----------------------|

E|--------------------------------------------------|
B|----------7--7-------7--7-----7--7----7--7--------|
G|--------------------------------------------------|
D|------6----------6---------8-------8--------------|
A|--------------------------------------------------|
E|--------------------------------------------------|

REPEATED CONTINUALLY

Now the song comprises mostly of this being played over and over again. but there is one
bit where tom plays this usually after the last bit i showed

E|--------------------------------------------------|
B|----------7--7-------7--7-----7--7----7--7--------|
G|--------------------------------------------------|
D|------6----------6---------8-------8--------------|
A|--------------------------------------------------|
E|--------------------------------------------------|

then

E|--------------------------------------------------|
B|--------------------------------------------------|
G|--------------------------------------------------|
D|------8-9-11-8-9-11-8-9---------------------------|
A|--------------------------------------------------|
E|--------------------------------------------------|
exibições 2.203
Acordes para:
    Colaboração e revisão:
    • Jean Sapia

    0 comentários

    mostrar mais comentários

    Conseguiu tocar?

    0 tocaram 0 ainda não

    Grave um vídeo tocando Down e mande pra gente!

    00:00 / 00:00
    outros vídeos desta música
    repetir qualidade Automático
    Outros vídeos desta música
    00:00 / 00:00
    Automático
    OK