Cifra Club

Fraud

Angels & Airwaves

Cifra: Principal (violão e guitarra)
Tom: C
Lead riff (0.16secs)
E|-10101010101010101010-9999999999-8888888888-888888888-|
B|------------------------------------------------------|
G|------------------------------------------------------| repeat till (1.27secs)
D|------------------------------------------------------|
A|------------------------------------------------------|
E|------------------------------------------------------|

Riff 1 (0.55secs)
E|----------------------------------|----------------------------------|
B|----------------------------------|----------------------------------|
G|-2222-2--55555-5--7777-7----------|-2222-2--55555-5--7777-7----------|
D|-2222-2--55555-5--7777-7--77777-7-|-2222-2--55555-5--7777-7--77777-7-| x2
A|-0000-0--33333-3--5555-5--77777-7-|-0000-0--33333-3--5555-5--77777-7-|
E|--------------------------55555-5-|--------------------------55555-5-|
        #        #       #        #        #        #       #        #

Riff 2 (1.28secs)
E|-------------------------------------|-------------------------------------|
B|-------------------------------------|-------------------------------------|
G|-22222222-55555555-77777777----------|-22222222-55555555-77777777----------|
D|-22222222-55555555-77777777-77777777-|-22222222-55555555-77777777-77777777-|
A|-00000000-33333333-55555555-77777777-|-00000000-33333333-55555555-77777777-|
E|----------------------------55555555-|----------------------------55555555-|
   ******** ******** ******** ********   ******** ******** ******** ********

E|-------------------------------------|
B|-------------------------------------|
G|-22222222-55555555-77777777----------| just x1
D|-22222222-55555555-77777777-77777777-| for this
A|-00000000-33333333-55555555-77777777-|
E|----------------------------55555555-|
   ******** ******** ******** ********

Riff 3 (1.52secs)
E|----------------------------------|----------------------------------|
B|----------------------------------|----------------------------------|
G|--------2-----------------1-------|--------2-----------------1-------|
D|---2-----------------2------------|---2-----------------2------------| x4
A|-0---0----0-0-0----3---3----3-3-3-|-0---0----0-0-0----3---3----3-3-3-|
E|----------------------------------|----------------------------------|


(2.24secs till end)
just drums fade out the track now.
exibições 697
Acordes para:
    Colaboração e revisão:
    • Élison Duarte

    0 comentários

    mostrar mais comentários

    Conseguiu tocar?

    0 tocaram 0 ainda não

    Grave um vídeo tocando Fraud e mande pra gente!

    00:00 / 00:00
    outros vídeos desta música
    repetir qualidade Automático
    Outros vídeos desta música
    00:00 / 00:00
    Automático
    OK