Cifra Club

It Hurts

Angels & Airwaves

Cifra: Principal (violão e guitarra)
Tom: A
INTRO:
(solinho)

e -9---
b --10-
g -----   (8x)
d -----
a -----
e -----

e|---5---5----------------------------------
b|-------------6---6-----5---5------5---5---
g|-6---6-----7---7-----6---6-----4----4-----
d|------------------------------------------  (2x)
a|------------------------------------------
e|------------------------------------------

e|-------------
b|-------------
g|-------------
d|-7-7-77------  (nessa parte toca e dá uma paradinha)
a|-7-7-77------
e|-5-5-55------

Continua o riff ...

e|---------------------------------------
b|---------------------------------------
g|----------------------------77777777---   
d|-77777777-99999999-44444444-77777777---       "it hurts" (8x)
a|-77777777-99999999-44444444-55555555---
e|-55555555-77777777-22222222------------

(solo depois da intro)

e|--5-7---5-7-9~----5----0---5-7----------  3x
b|----------------------------------------

e|--9-5~-----0-7~-----9-5~---------
b|---------------------------------

(solinho do verso, +- assim)

e|----9----7---7----7----7--9--9---------7--
b|-10---10-------10---10---------10--10-----


Is this what you want?
Cause everybody acts without a clue
Every little kiss and grin you gave was just a little bullshit I saw throught
The alcohol I scented with your breath
You're always open up to just be used
I'm waiting for excuses that decieve
I'll meet you in the back to see them through

(interlude)
e|------------------------------------------------------
b|------------------------------------------------------
g|-------7-7-7---------9-9-9---------7-7-7---------9-9-7  
d|7-7-7--7-7-7--7-7-7--9-9-9--4-4-4--7-7-7--7-7-7--9-9-7     
a|7-7-7--5-5-5--5-7-7--7-7-7--4-4-4--5-5-5--7-7-7--7-7-7
e|5-5-5---------5-5-5---------2-2-2---------5-5-5-------

How did I let her inside?
We're dripping in sweat and feeling alright
Her lips were the last thing touched tonight
Your best friend is not your girlfriend.

(solinho do verso)

Are you out of your mind?
You've dug yourself into a liar's hole
You made a little spark to live inside
It's now a fucking fire out of control
And when the morning comes you'll act surprised
And when the word gets out it will get old
And every day you'll try to live your life
And every little scandle will unfold

(interlude)

How did I let her inside?
We're dripping in sweat and feeling alright
Her lips were the last thing touched tonight
Your best friend is not your girlfriend.

(riff) "it's hurts..."

(solinho do começo...)

Dream you want it
Dream I want too
Dream

(interlude)

How did I let her inside?
We're dripping in sweat and feeling alright
Her lips were the last thing touched tonight
Your best friend is not your girlfriend.

(Riff)

It hurts (30x)
Your best friend is not your girlfriend!

Vlw galera...
exibições 8.454
Acordes para:
    Colaboração e revisão:
    • Rafael Fonseca
    • Alan Smith

    0 comentários

    mostrar mais comentários

    Conseguiu tocar?

    2 tocaram 0 ainda não

    Grave um vídeo tocando It Hurts e mande pra gente!

    00:00 / 00:00
    outros vídeos desta música
    repetir qualidade Automático
    Outros vídeos desta música
    00:00 / 00:00
    Automático
    OK