Cifra Club

There Is

Angels & Airwaves

Cifra: Principal (violão e guitarra)
Tom: E
0:00 - 0:55 (repeat continously until 0:55)
e|------------------------------------------------|
B|------------------------------------------------|
G|------------------------------------------------|
D|--4-4-4-4-4-------------------------------------|
A|--2-2-2-2-2--4-4-4-4-4--6-6-6-6-6--2-2-2-2-2----|
E|-------------2-2-2-2-2--4-4-4-4-4--0-0-0-0-0----|

0:55- 1:03
e|-------------------------------------------------------------------|
B|-------------------------------------------------------------------|
G|-------------------------------------------------------------------|
D|--4---4-4-4--4-----------------------------------------------------|
A|--2---2-2-2--2---4---4-4-4--4---6---6-6-6--6---2---2-2-2--2--------|
E|-----------------2---2-2-2--2---4---4-4-4--4---0---0-0-0--0--------|

1:03- 1:37 (cotninously repeat)
e|------------------------------------------------|
B|------------------------------------------------|
G|------------------------------------------------|
D|--4-4-4-4-4-------------------------------------|
A|--2-2-2-2-2--4-4-4-4-4--6-6-6-6-6--2-2-2-2-2----|
E|-------------2-2-2-2-2--4-4-4-4-4--0-0-0-0-0----|

1:37 - 1:54
e|---------------------------------------------------|
B|---------------------------------------------------|
G|---------------------------------------------------|
D|--4-4-4-4-4----------------------------------------|
A|--2-2-2-2-2--4-4-4-4-4--6-6-6-6-6--2-2-2-2-2-------|
E|-------------2-2-2-2-2--4-4-4-4-4--0-0-0-0-0-------|
....>.>.>.>.>..>.>.>.>.>..>.>.>.>.>..>.>.>.>.>


1:54- 2:09
e|---------------------------------------------|
B|---------------------------------------------|
G|---------------------------------------------|
D|--4~--------------4~-------------------------|
A|--2~--4~--6~--2~--2~--4~--6~--2~-------------|
E|------2~--4~--0~------2~--4~--0~-------------|

2:09- end.
e|------------------------------------------------------------|
B|------------------------------------------------------------|
G|------------------------------------------------------------|
D|--44444-4-4-4-4-4-----------------------------------4~------|
A|--22222-2-2-2-2-2--4-4-4-4-4--6-6-6-6-6--2-2-2-2-2--2~--4~--|
E|-------------------2-2-2-2-2--4-4-4-4-4--0-0-0-0-0------2~--|
exibições 2.121
Acordes para:
    Colaboração e revisão:
    • Jean Sapia

    0 comentários

    mostrar mais comentários

    Conseguiu tocar?

    0 tocaram 0 ainda não

    Grave um vídeo tocando There Is e mande pra gente!

    00:00 / 00:00
    outros vídeos desta música
    repetir qualidade Automático
    Outros vídeos desta música
    00:00 / 00:00
    Automático
    OK