Cifra Club

War

Angels & Airwaves

Cifra: Versão 3 (violão e guitarra)
Tom: D
                                AVA - THE WAR

Tabbed by: Chaosbreedslife
Album: We Don't Need To Wispher

Tuning: Drop D: DADGBE





                       
Intro: Distortion (Delay)

e|------------------------------------------|
B|------------------------------------------|
G|------------------------------------------|   x 12
D|---------7----5----4--5--4--4-------------|
A|-----5-5--5-5--5-5--5--5--5--5------------|
D|------------------------------------------|
PM...........................................




Then heavy distortion:

e|-----------------------------------------------------------|
B|-----------------------------------------------------------|
G|-----------------------------------------------------------|
D|----0-0-0-0--0-0-0-0--7-7-7-7--0-0-0-0--0-0-0-0--7-7-7-7---|
A|----0-0-0-0--0-0-0-0--7-7-7-7--0-0-0-0--0-0-0-0--7-7-7-7---|
D|----0-0-0-0--0-0-0-0--7-7-7-7--0-0-0-0--0-0-0-0--7-7-7-7---|

e|-----------------------------------------------------------|   
B|-----------------------------------------------------------|   
G|-----------------------------------------------------------|   X2
D|----9-9-9-9--9-9-9-9--5-5-5--0-0-0-0--7-7-7-7--x-x-x--5-0--|
A|----9-9-9-9--9-9-9-9--5-5-5--0-0-0-0--7-7-7-7--x-x-x--5-0--|
D|----9-9-9-9--9-9-9-9--5-5-5--0-0-0-0--7-7-7-7--x-x-x--5-0--|




Verse: Clean (Delay)

e|-------------------------------|
B|-------------------------------|
G|----7-------11-------12--------| X2
D|----x--X16--x---X16---x--X16---|
A|----5-------9--------10--------|
D|-------------------------------|




Pre-Chorus: Clean (Delay)

e|-------------------------------------------------------------------------|
B|-------------------------------------------------------------------------|
G|----7-7-7-7--7-7-7-7--7-7--7-7-7-7--7-7-7-7--7-7-------------------------|
D|----x-x-x-x--x-x-x-x--x-x--x-x-x-x--x-x-x-x--x-x--9-9-9-9--9-9-9-9--9-9--|
A|----5-5-5-5--5-5-5-5--5-5--5-5-5-5--5-5-5-5--5-5--9-9-9-9--9-9-9-9--9-9--|
D|----0-0-0-0--0-0-0-0--0-0--7-7-7-7--7-7-7-7--7-7--9-9-9-9--9-9-9-9--9-9--|

e|----------------------------|
B|----------------------------|
G|----------------------------|  X2
D|----7-7-7-7--7-7-7-7--7-7---|
A|----7-7-7-7--7-7-7-7--7-7---|
D|----7-7-7-7--7-7-7-7--7-7---|




Chorus: Distortion (Delay)

e|-------------------------------------------------------------------------|
B|-------------------------------------------------------------------------|
G|----7-7-7-7--7-7-7-7--7-7------------------------------------------------|
D|----x-x-x-x--x-x-x-x--x-x---X2---7-7-7-7--7-7-7-7--7-7--5-5-5-5--5-5-5-5-|
A|----5-5-5-5--5-5-5-5--5-5--------7-7-7-7--7-7-7-7--7-7--5-5-5-5--5-5-5-5-|
D|---------------------------------7-7-7-7--7-7-7-7--7-7--5-5-5-5--5-5-5-5-|

e|----------|
B|----------|
G|----------|   Whole chorus X2
D|----5-5---|
A|----5-5---|
D|----5-5---|




Intro again: Distortion

e|-----------------------------------------------------------|
B|-----------------------------------------------------------|
G|-----------------------------------------------------------|
D|----0-0-0-0--0-0-0-0--7-7-7-7--0-0-0-0--0-0-0-0--7-7-7-7---|
A|----0-0-0-0--0-0-0-0--7-7-7-7--0-0-0-0--0-0-0-0--7-7-7-7---|
D|----0-0-0-0--0-0-0-0--7-7-7-7--0-0-0-0--0-0-0-0--7-7-7-7---|

e|-----------------------------------------------------------|   
B|-----------------------------------------------------------|   
G|-----------------------------------------------------------|   X1
D|----9-9-9-9--9-9-9-9--5-5-5--0-0-0-0--7-7-7-7--x-x-x--5-0--|
A|----9-9-9-9--9-9-9-9--5-5-5--0-0-0-0--7-7-7-7--x-x-x--5-0--|
D|----9-9-9-9--9-9-9-9--5-5-5--0-0-0-0--7-7-7-7--x-x-x--5-0--|




Verse: Clean (Delay)

e|-------------------------------|
B|-------------------------------|
G|----7-------11-------12--------| X2
D|----x--X16--x---X16---x--X16---|
A|----5-------9--------10--------|
D|-------------------------------|




Pre-Chorus: Clean (Delay)

e|-------------------------------------------------------------------------|
B|-------------------------------------------------------------------------|
G|----7-7-7-7--7-7-7-7--7-7--7-7-7-7--7-7-7-7--7-7-------------------------|
D|----x-x-x-x--x-x-x-x--x-x--x-x-x-x--x-x-x-x--x-x--9-9-9-9--9-9-9-9--9-9--|
A|----5-5-5-5--5-5-5-5--5-5--5-5-5-5--5-5-5-5--5-5--9-9-9-9--9-9-9-9--9-9--|
D|----0-0-0-0--0-0-0-0--0-0--7-7-7-7--7-7-7-7--7-7--9-9-9-9--9-9-9-9--9-9--|

e|----------------------------|
B|----------------------------|
G|----------------------------|  X2
D|----7-7-7-7--7-7-7-7--7-7---|
A|----7-7-7-7--7-7-7-7--7-7---|
D|----7-7-7-7--7-7-7-7--7-7---|





Chorus: Distortion (Delay)

e|-------------------------------------------------------------------------|
B|-------------------------------------------------------------------------|
G|----7-7-7-7--7-7-7-7--7-7------------------------------------------------|
D|----x-x-x-x--x-x-x-x--x-x---X2---7-7-7-7--7-7-7-7--7-7--5-5-5-5--5-5-5-5-|
A|----5-5-5-5--5-5-5-5--5-5--------7-7-7-7--7-7-7-7--7-7--5-5-5-5--5-5-5-5-|
D|---------------------------------7-7-7-7--7-7-7-7--7-7--5-5-5-5--5-5-5-5-|

e|----------|
B|----------|
G|----------|   Whole chorus X2  (end on Open D)-----
D|----5-5---|                                   --0--
A|----5-5---|                                   --0--
D|----5-5---|                                   --0--




PAUSE--- ALL THE OH OH OH things are now.




Then just keep doing this until it goes back into the chorus: Clean (Delay)
e|----------------------------|
B|----------------------------|
G|----7-7-7-7--7-7-7-7--7-7---|
D|----x-x-x-x--x-x-x-x--x-x---|
A|----5-5-5-5--5-5-5-5--5-5---|
D|----------------------------|




Chorus: Distortion (Delay)

e|-------------------------------------------------------------------------|
B|-------------------------------------------------------------------------|
G|----7-7-7-7--7-7-7-7--7-7------------------------------------------------|
D|----x-x-x-x--x-x-x-x--x-x---X2---7-7-7-7--7-7-7-7--7-7--5-5-5-5--5-5-5-5-|
A|----5-5-5-5--5-5-5-5--5-5--------7-7-7-7--7-7-7-7--7-7--5-5-5-5--5-5-5-5-|
D|---------------------------------7-7-7-7--7-7-7-7--7-7--5-5-5-5--5-5-5-5-|

e|----------|
B|----------|
G|----------|   Whole chorus X4 
D|----5-5---|                         
A|----5-5---|                          
D|----5-5---| 




Back into Intro: Distortion

e|-----------------------------------------------------------|
B|-----------------------------------------------------------|
G|-----------------------------------------------------------|
D|----0-0-0-0--0-0-0-0--7-7-7-7--0-0-0-0--0-0-0-0--7-7-7-7---|
A|----0-0-0-0--0-0-0-0--7-7-7-7--0-0-0-0--0-0-0-0--7-7-7-7---|
D|----0-0-0-0--0-0-0-0--7-7-7-7--0-0-0-0--0-0-0-0--7-7-7-7---|

e|-----------------------------------------------------------|   
B|-----------------------------------------------------------|   
G|-----------------------------------------------------------|   X2 Let end
D|----9-9-9-9--9-9-9-9--5-5-5--0-0-0-0--7-7-7-7--x-x-x--5-0--|      chord
A|----9-9-9-9--9-9-9-9--5-5-5--0-0-0-0--7-7-7-7--x-x-x--5-0--|      ring.
D|----9-9-9-9--9-9-9-9--5-5-5--0-0-0-0--7-7-7-7--x-x-x--5-0--|




Well there you are everybody, comments welcome, give me an email if anythings wrong.

Enjoy Folks!!!!



exibições 214
Acordes para:
    Composição: Tom DeLonge

    0 comentários

    mostrar mais comentários

    Conseguiu tocar?

    0 tocaram 0 ainda não

    Grave um vídeo tocando War e mande pra gente!

    00:00 / 00:00
    outros vídeos desta música
    repetir qualidade Automático
    Outros vídeos desta música
    00:00 / 00:00
    Automático
    OK