Cifra Club

Acid Rain

Angra

Cifra: Principal
exibições 71.547
Tom: G
1ªparte - CORO
                                                     ___________________________________________
                                               Obs.:{(~)= let ring | (v)=vibrato | (h)=hammer on}

      Miserimus    Sanctus     Et. Catolicum  Ominus
e|-------------------------------------------------
B|-------------------------------------------------
G|-2-2----------2-2--------2-2---------------------
D|-2-2----------2-2--------2-2--------------3~-----
A|-0-0----------0-0--------0-0--------------3~-----
E|------------------------------------------1~-----

      Miserimus    Sanctus     Et. Catolicum  Ominus
e|-------------------------------------------------
B|-------------------------------------------------
G|-2-2----------2-2--------2-2--------------5~-----
D|-2-2----------2-2--------2-2--------------5~-----
A|-0-0----------0-0--------0-0--------------3~-----
E|------------------------------------------3~-----

      Miserimus    Sanctus  Domine Deo Sabbaoth  Do-mi-ne   
e|------------------------------------------------
B|------------------------------------------------
G|-2-2~---------5-5~------------------------------
D|-2-2~---------5-5~---------4-4~-----------------
A|-0-0~---------3-3~---------4-4~-----------3v----
E|--------------3-3~---------2-2~-----------------

Solo:
   E                    A                D                B
e|----------------------10------------------------------------------------
B|---12---11~-----11-12----10-9-----9-10---8---7~-----7-8-5~-4~-----------
G|-9----9-----9-9---------------9-9------7---7----7-7-----------4-4-5-4---
D|------------------------------------------------------------------------
A|------------------------------------------------------------------------
E|------------------------------------------------------------------------

   E                    A                C               D            A
e|----------------------10---------------7-8-7-5--------------------------
B|---12---11~-----11-12----10-9-----9-10---------8-7-5-4-5-4--------------
G|-9----9-----9-9---------------9-9--------------------------5-4----------
D|---------------------------------------------------------------7-5-4----
A|---------------------------------------------------------------------5--
E|------------------------------------------------------------------------

e|---------------------------------------------------------
B|--------------------------------------------------------- 
G|--------------------7-------------------------------5~---  
D|---9---7~-----7-9---5---4~-----4-5---9---7~-----7-9-5~---  /
A|---7---5~-----5-7-------5~-----5-5---7---5~-----5-7-3~--- /  REPETE 
E|-0---0----0-0-----0---0----0-0-----0---0----0-0-----3~---/

e|---------------------------------------------------|
B|---------------------------------------------------|
G|---------------------------------------------------|
D|---------9~---------7~---------5~-------------3~---|
A|---------7~---------5~---------3~-------------1~---|
E|-0-0-0-0----0-0-0-0----0-0-0-0----0-0-0-0-0-0------|

Em                             
   When the world had a tragic fate 
   We were draining the poison of seas
Em
   Though the scenes were indeed too sad
   Only prayers were taking lead

   Am                     E D D/E G F# F#/G
   Oh! Just some of us survived
   Am                            E D D/E G F# F#/G
   At least a discent woman and a man
   F#m                Em  G             D                   
   Wide awake! Am I alone in this place
   F#m                        C    F
   Someone hear me ? my only hope!

   Am       G       
   The Acid Rain is burning
   F       C       G
   Right into your eyes
   Am          G                   F    C G
   Again your dreams may loose the glow
   Am         G             F                      C  G
   Allow the sorrow of your thougths to meet sunrise
   Am                 G           
   And shall the hopefull words
         F                C     G
   Bring love inside your heart
   Bb        F                    C
   The Acid Rain is burning your eyes!

Solo1: (C)
       (C F A C)
       (E B C C E B C F)

e|--------------------------------|------------------------|
B|--------------------------------|------------------------|
G|--------------------------------|------------------------|
D|-------5----4-------------------|------------------------|
A|--3--3----3----------3-3-3-3----|------------------------|
E|--------------------------------|------------------------|
   
e|----------------------------|----------------------------|
B|----------------------------|----------------------------|
G|----------------------------|----------------------------|
D|----------------------------|--1--1----------------------|
A|--3--3----------------------|-------4--2-3---------------|
E|-------4--3-2---------------|----------------------------|

e|--------------------------------|----------------------------|
G|--------------------------------|----------------------------|
B|--------------------------------|----------------------------|
D|-------5----4-------------------|----------------------------|
A|--3--3----3----------3-3-3-3----|--3--3----------------------|
E|--------------------------------|-------4--3-2---------------|

e|----------------------------|------------------------------------|
G|----------------------------|------------------------------------|
B|----------------------------|------------------------------------|
D|--1--1----------------------|--------5----4v--------4h--5v-------|
A|-------4--2-----------------|--3-3-3----3-------3-3--------------|
E|------------4---------------|------------------------------------|

e|------------------------------------|-----------------------------------|
G|------------------------------------|-----------------------------------|
B|------------------------------------|-----------------------------------|
D|------------------------------------|-----------------------------------|
A|--------3----2v--------2h--3v-------|--------7----6--------6h--7v-------|
E|--1-1-1----1-------1-1--------------|--5-5-5----5------5-5--------------|

e|------------------------------------|
G|------------------------------------|
B|------------------------------------|
D|--------5----4v--------4h--5v-------|
A|--3-3-3----3-------3-3--------------|
E|------------------------------------|
( a parte facil tá ai... o mais resto fica pra dps =þ )

   Am        Am       Am          F
   Miserimus Sanctus! Et. Catolicum Ominus!

Solo2: (A G G/A A G G/A A G G/A F)2x
       (E E E G C E E E G C)
       (E B A E E B A)
       (E Eb D Db C B E)2x
       (E F# F)

   Em
   So the world knew a tragig fate
   We were draining the deadly sea
   Em
   And the scenes were indeed too sad
   Only prayers were taking lead

   Am                     E D D/E G F# F#/G
   Oh! Just some of us survived
   Am                            E D D/E G F# F#/G
   At least a discent woman and a man
   F#m                Em  G             D                   
   Wide awake! Am I alone in this place
   F#m                        C F Ab E
   Someone hear me ? my only hope!

   Am       G       
   The Acid Rain is burning
   F       C       G
   Right into your eyes
   Am          G                   F    C G
   Again your dreams may loose the glow
   Am         G             F                      C  G
   Allow the sorrow of your thougths to meet sunrise
   Am                 G           
   And shall the hopefull words
         F                C     G
   Bring love inside your heart
   Ab        Bb                   Cm             Cm
   The Acid Rain is burning your eyes! Miserimus
Acordes para:
    Composição: Rafael BittencourtColaboração e revisão:
    • Maurício Araldi
    • Ciro Sobral

    0 comentários

      mostrar mais comentários

      Conseguiu tocar?

      2tocaram0ainda não

      Grave um vídeo tocando Acid Rain e mande pra gente!

      00:00 / 00:00
      outros vídeos desta música
      repetirqualidadeautomática
      Outro vídeos desta música
        00:00 / 00:00
        automática
        OK