Cifra Club

Angels Cry

Angra

Cifra: Principal (violão e guitarra)
Selo Cifra Club: esta cifra foi revisada para atender aos critérios oficiais da nossa Equipe de Qualidade.
tom: G
INTRO (RIFF 1):

Guitar 1: octave down    Guitar 2: octave up   

e]------------------------------------------------------------------------------------------
B]------------------------------------------------------------------------------------------
G]-12-11~~-9-7~~--12-11~~--7-9~~----15-13~~-13-11~----16-15-18-18~~-------------------------
D]------------------------------------------------------------------------------------------
A]-10-9~~--7-5~~--10-9~~---5-7~~----13-11~~-11-9~~----14-13-16-16~~-------------------------
E]------------------------------------------------------------------------------------------

SOLO (with Wah)

e]------------------------------------------------------------------------------------------
B]---7-11-11~~--12~-11~-9-11-9-7-6------7-11(12)B~~--15~-14~-12-14(15)RB-RB~~---------------
G]-8----------------------------------8-----------------------------------------------------
D]------------------------------------------------------------------------------------------
A]------------------------------------------------------------------------------------------
E]------------------------------------------------------------------------------------------

e]---------------------------------------------------------14(15)B~~--18-17-15-17-18-17-18--
B]-14~-12~----15~~--17~-15~-14-15-14-12-10~~----14~-12~-------------------------------------
G]---------14-------------------------------------------14----------------------------------
D]------------------------------------------------------------------------------------------
A]------------------------------------------------------------------------------------------
E]------------------------------------------------------------------------------------------

                           *Depress bar
e]17-18-17-18-17~-17~-17~-17*~~~------------------------------------------------------------
B]------------------------------------------------------------------------------------------
G]------------------------------------------------------------------------------------------
D]------------------------------------------------------------------------------------------
A]------------------------------------------------------------------------------------------
E]------------------------------------------------------------------------------------------

Verse: RIFF 2 (4X)

       P.M.    P.M.    P.M.                  P.M.   P.M.       P.M. AH P.M. AH
e]------------------------------------------------------------------------------------------
B]------------------------------------------------------------------------------------------
G]------------------------------------------------------------------------------------------
D]-2-2-------5-----2-2-------------------2-2------------5-5----0-0-3p4-0-0-3p4--------------
A]-2-2-------3-----2-2-------------------2-2------5-----3-3---------------------------------
E]-0-0-0-0------0--0-0-0-0--6p5p3-5p4p2--0-0-0-0--3--0--------------------------------------

P.M.    P.M.    P.M.                  P.M.   P.M.           P.M...
e]------------------------------------------------------------------------------------------
B]------------------------------------------------------------------------------------------
G]------------------------------------------------------------------------------------------
D]-2-2-------5-----2-2-------------------2-2------------5-----------------------------------
A]-2-2-------3-----2-2-------------------2-2------5-----3-----------------------------------
E]-0-0-0-0------0--0-0-0-0--6p5p3-5p4p2--0-0-0-0--3--0-------317/--------------------------



Cry in the night of angel
For theis light will never shine
With their so full of sorrow
Muddy waters all around
The curtains falls 
for helpless souls
How they suffer swept aside
And the raging streams are flowing
With so hope litle inside

BRIDGE: RIFF 1 (1X)

Angels crying
Can´t take no more
Angels dying
Capture their fall


AFTER THIS RIFF, PLAY THIS:

  P.M.......................................................................................
e]------------------------------------------------------------------------------------------
B]------------------------------------------------------------------------------------------
G]-6-6-6-6-6-6-6-6-6-6-6-6-6-6-6-6----------------------------------------------------------
D]-6-6-6-6-6-6-6-6-6-6-6-6-6-6-6-6----7-9-9-9-7-9-9-9-9-9-9--7-9-9-9-7-9-9-9-9-9-9--7-9-9-9-
A]-4-4-4-4-4-4-4-4-4-4-4-4-4-4-4-4----------------------------------------------------------
E]------------------------------------------------------------------------------------------

  P.M.......................................................................................
e]------------------------------------------------------------------------------------------
B]------------------------------------------------------------------------------------------
G]------------------------------------------------------------------------------------------
D]------------------------------------------------------------------------------------------
A]-7-9-9-9-9-9-9----14-12-12-12--14-12-12-12--14-12-12----7-9-9-9-7-9-9-9-9-9-9--7-9-9-9-7--
E]------------------------------------------------------------------------------------------


   P.M................................
e]------------------------------------------------------------------------------------------
B]------------------------------------------------------------------------------------------
G]---------------------------------------9--------------------------------------------------
D]---------------------------------------9--------------------------------------------------
A]-9-9-9-9-9-9--7-9-9-9-7-9-9-9-9-9-9----7--------------------------------------------------
E]------------------------------------------------------------------------------------------


Try to see this misery
your future is not what you wished to be
So try to fly, the answer lies
in the angry darkened skies



CHORUS - RIFF 3 - (play this 2X): 
       
     P.M...     P.M....   P.M..     P.M....   P.M..    P.M.....  P.M...    P.M.....  P.M... 
e]------------------------------------------------------------------------------------------
B]------------------------------------------------------------------------------------------
G]-4--------4-4---------3-------3-3---------4-------4-4---------4-------4-4---------4-------
D]-4--------4-4---------3-------3-3---------4-------4-4---------4-------4-4---------4-------
A]---2-2-2------2-2-2-2-1-1-1-1-----1-1-1-1-2-2-2-2-----2-2-2-2-2-2-2-2-----2-2-2-2-2-2-2-2-
E]------------------------------------------------------------------------------------------


       P.M..... P.M...     P.M....  P.M..................................................... 
e]------------------------------------------------------------------------------------------
B]------------------------------------------------------------------------------------------
G]-4-4---------3-------3-3---------4--------------------------------------------------------
D]-4-4---------3-------3-3---------4--------------------------------------------------------
A]-----2-2-2-2-1-1-1-1-----1-1-1-1-2-5-5-5-5-7-7-7-7-9-9-9-9-10-10-10-10-12-12-12-12-10-10--
E]------------------------------------------------------------------------------------------

   P.M...................  In the second time, finish the riff with G# (Depress bar slowly) 
e]------------------------------------------------------------------------------------------
B]------------------------------------------------------------------------------------------
G]------------------------------------------------------------------------------------------
D]-10-10-9-9-9-9-7-7-7-7-------6------------------------------------------------------------
A]-----------------------------6------------------------------------------------------------
E]-----------------------------4------------------------------------------------------------





You just keep on standing in these fields
all your life
You sow the seeds that never grow
No harvest comes such a strain
to feed the few
Still you´re waiting, it´s in vain...
The chance must ciome right now!


SOLO (with delay):

                                         AH
e]-18~~--17-15-17~~~~----9h11-12~~--11-9-11~~~~---------------------------------------------
B]------------------------------------------------------------------------------------------
G]------------------------------------------------------------------------------------------
D]-------------------------------------------------2-2--3-3--2-2--3-3--2-2--3-3--2-2--3-3---
A]-------------------------------------------------2-2--3-3--2-2--3-3--2-2--3-3--2-2--3-3---
E]---------------------------------------------------------------------------------------3/


Play this part 2X

  P.M.....    P.M.....       P.M.....    P.M.....         
e]------------------------------------------------------------------------------------------
B]------------------------------------------------------------------------------------------
G]------------------------------------------------------------------------------------------
D]-2-2-2-2-2---2-2-2-2-2-2----3-3-3-3-3---3-3-3-3--4/5/4--4/5/4-----------------------------------
A]-2-2-2-2-2---2-2-2-2-2-2----3-3-3-3-3---3-3-3-3--2/3/2--2/3/2------------------------------
E]----------------------------1-1-1-1-1---1-1-1-1-------------------------------------------


Play this 5X
                      
  P.M...................AH     P.M........................AH                          
e]------------------------------------------------------------------------------------------
B]-----------------------------------------------------------------------------------------
G]-----5-4-------------------------7-6-------------7-6--------------------------------------
D]-2-5-----2-5-2-5-2-5-2-2~----4-7-----4-7-4-7-4-7-----4-7-4~-------------------------------
A]------------------------------------------------------------------------------------------
E]------------------------------------------------------------------------------------------



In 6 time, play this

e]------------------------------------------------------------------------------------------
B]------------------------------------------------------------------------------------------
G]-----5-4-----6-5-----7-6-----8-7----------------------------------------------------------
D]-2-5-----3-6-----4-7-----5-8-------13-8-13-8-8-8--13-8-13-8-8-8---------------------------
A]-----------------------------------11-6-11-6-6-6--11-6-11-6-6-6--11-7-9-6-----------------
E]--------------------------------------------------------------------------7-9-6-7-4-3-4~~-

e]------------------------------------------------------------------------------------------
B]------------------------------------------------------------------------------------------
G]------------------------------------------------------------------------------------------
D]-13--16p15p13-18-12--13--16p15p13-18-12--13--16p15p13-18-12--13--16p15p13-18-12-----------
A]------------------------------------------------------------------------------------------
E]------------------------------------------------------------------------------------------

The rest of the SOLO I can´t trnscryp. Maybe I transcryp him later
End of SOLO

e]----------------------------------------11-11-11------------------------------------------
B]-9--13-9--13-9-13-9-13-9----9----9----9----------9-9-9------------------------------------
G]------------------------------------------------------------------------------------------
D]-------------------------13---13---13-----------------------------------------------------
A]------------------------------------------------------------------------------------------
E]---------------------------------------------------------12/------------------------------






Verse: RIFF 2 (4X)

       P.M.    P.M.    P.M.                  P.M.   P.M.       P.M. AH P.M. AH
e]------------------------------------------------------------------------------------------
B]------------------------------------------------------------------------------------------
G]------------------------------------------------------------------------------------------
D]-2-2-------4-----2-2-------------------2-2------------4-4----0-0-3p4-0-0-3p4--------------
A]-2-2-------2-----2-2-------------------2-2------4-----2-2---------------------------------
E]-0-0-0-0------0--0-0-0-0--6p5p3-5p4p2--0-0-0-0--2--0--------------------------------------

P.M.    P.M.    P.M.                  P.M.   P.M.           P.M...
e]------------------------------------------------------------------------------------------
B]------------------------------------------------------------------------------------------
G]------------------------------------------------------------------------------------------
D]-2-2-------4-----2-2-------------------2-2------------4-----------------------------------
A]-2-2-------2-----2-2-------------------2-2------4-----2-----------------------------------
E]-0-0-0-0------0--0-0-0-0--6p5p3-5p4p2--0-0-0-0--2--0-------317/--------------------------


Oh, see the sun in the sky
(from the dawn of destruction)
Free, free this chain form my heart...
Hear the cry of angels
from this life you cannot hide
The change may come tomorrow
for the solemn weeping eyes


BRIDGE: RIFF 1 (1X)

Angels crying
Can´t take no more
Angels dying
Capture their fall


AFTER THIS RIFF, PLAY THIS:

  P.M.......................................................................................
e]------------------------------------------------------------------------------------------
B]------------------------------------------------------------------------------------------
G]-6-6-6-6-6-6-6-6-6-6-6-6-6-6-6-6----------------------------------------------------------
D]-6-6-6-6-6-6-6-6-6-6-6-6-6-6-6-6----7-9-9-9-7-9-9-9-9-9-9--7-9-9-9-7-9-9-9-9-9-9--7-9-9-9-
A]-4-4-4-4-4-4-4-4-4-4-4-4-4-4-4-4----------------------------------------------------------
E]------------------------------------------------------------------------------------------


  P.M.......................................................................................
e]------------------------------------------------------------------------------------------
B]------------------------------------------------------------------------------------------
G]------------------------------------------------------------------------------------------
D]------------------------------------------------------------------------------------------
A]-7-9-9-9-9-9-9----14-12-12-12--14-12-12-12--14-12-12----7-9-9-9-7-9-9-9-9-9-9--7-9-9-9-7--
E]------------------------------------------------------------------------------------------


   P.M................................
e]------------------------------------------------------------------------------------------
B]------------------------------------------------------------------------------------------
G]---------------------------------------9--------------------------------------------------
D]---------------------------------------9--------------------------------------------------
A]-9-9-9-9-9-9--7-9-9-9-7-9-9-9-9-9-9----7--------------------------------------------------
E]------------------------------------------------------------------------------------------


Try to see this misery
your future is not what you wished to be
So try to fly, the answer lies
in the angry darkened skies





      P.M........    P.M....   P.M..   P.M......   P.M..   P.M...  P.M......   P.M...  
e]------------------------------------------------------------------------------------------
B]------------------------------------------------------------------------------------------
G]-13--------------11--------10------13----------11------10------13----------11------10-----
D]-13--------------11--------10------13----------11------10------13----------11------10-15--
A]-11-11-11-11-11--9-9-9-9-9-8-8-8-8-11-11-11-11-9-9-9-9-8-8-8-8-11-11-11-11-9-9-9-9-8--13--
E]------------------------------------------------------------------------------------------


e]------------------------------------------------------------------------------------------
B]------------------------------------------------------------------------------------------
G]------------------------------------------------------------------------------------------
D]-13--11-10--------------------------------------------------------------------------------
A]-11--9--8---------------------------------------------------------------------------------
E]------------------------------------------------------------------------------------------


P.M........    P.M....   P.M..   P.M......   P.M..   P.M...  P.M......   P.M...  
e]------------------------------------------------------------------------------------------
B]------------------------------------------------------------------------------------------
G]-13--------------11--------10------13----------11------10------13----------11------10-----
D]-13--------------11--------10------13----------11------10------13----------11------10-----
A]-11-11-11-11-11--9-9-9-9-9-8-8-8-8-11-11-11-11-9-9-9-9-8-8-8-8-11-11-11-11-9-9-9-9-8------
E]------------------------------------------------------------------------------------------


e]------------------------------------------------------------------------------------------
B]------------------------------------------------------------------------------------------
G]------------------------------------------------------------------------------------------
D]-1516/13---------------------------------------------------------------------------------
A]-1314/13---------------------------------------------------------------------------------
E]------------------------------------------------------------------------------------------


P.M........    P.M....   P.M..   P.M......   P.M..   P.M...  P.M......   P.M...  
e]------------------------------------------------------------------------------------------
B]------------------------------------------------------------------------------------------
G]-13--------------11--------10------13----------11------10------13----------11------10-----
D]-13--------------11--------10------13----------11------10------13----------11------10-15--
A]-11-11-11-11-11--9-9-9-9-9-8-8-8-8-11-11-11-11-9-9-9-9-8-8-8-8-11-11-11-11-9-9-9-9-8--13--
E]------------------------------------------------------------------------------------------




e]------------------------------------------------------------------------------------------
B]------------------------------------------------------------------------------------------
G]------------------------------------------------------------------------------------------
D]-13--11-10--------------------------------------------------------------------------------
A]-11--9--8---------------------------------------------------------------------------------
E]------------------------------------------------------------------------------------------


P.M........    P.M....   P.M..   P.M......   P.M..   P.M...  P.M......   P.M...  
e]------------------------------------------------------------------------------------------
B]------------------------------------------------------------------------------------------
G]-13--------------11--------10------13----------11------10------13----------11------10-----
D]-13--------------11--------10------13----------11------10------13----------11------10-----
A]-11-11-11-11-11--9-9-9-9-9-8-8-8-8-11-11-11-11-9-9-9-9-8-8-8-8-11-11-11-11-9-9-9-9-8------
E]------------------------------------------------------------------------------------------


e]------------------------------------------------------------------------------------------
B]------------------------------------------------------------------------------------------
G]------------------------------------------------------------------------------------------
D]-15-16-13-16-15-16-15-16-15/--------------------------------------------------------------
A]-13-14-13-14-13-14-13-14-13/--------------------------------------------------------------
E]------------------------------------------------------------------------------------------






Angels are crying and dying
There must be some way
endless you stray, still you pray
for a better life
Nobody sees when a glimpse
of your target lies behind you,
Like steps of pligrims unshined!!



      P.M.    P.M. Dive bar 
e]------------------------------------------------------------------------------------------
B]------------------------------------------------------------------------------------------
G]------------------------------------------------------------------------------------------
D]-2-2-------4-----2------------------------------------------------------------------------
A]-2-2-------2-----2------------------------------------------------------------------------
E]-0-0-0-0------0--0------------------------------------------------------------------------
Outros vídeos desta música
    102.311 exibições
      • ½ Tom
      • A
      • Bb
      • B
      • C
      • Db
      • D
      • Eb
      • E
      • F
      • F#
      • G
      • Ab
    • Adicionar à lista

    Afinação da cifra

    Afinador online

      0 comentários

      Ver todos os comentários

      Conseguiu tocar?

      4Tocaram0Ainda não

      Grave um vídeo tocando Angels Cry e nos envie!

      Toque também

      1. Imagem do artista ShamanFairy Tale Shaman
      2. Imagem do artista Andre MatosFairy Tale Andre Matos
      3. Imagem do artista Edu FalaschiPegasus Fantasy - Saint Seya Edu Falaschi
      4. Imagem do artista HangarTime To Forget Hangar

      Entre para o Cifra Club PRO

      Tenha acesso a benefícios exclusivos no App e no Site

      • Chega de anúncios

      • Badges exclusivas

      • Mais recursos no app do Afinador

      • Atendimento Prioritário

      • Aumente seu limite de lista

      • Ajude a produzir mais conteúdo

      Cifra Club Pro

      Aproveite o Cifra Club com benefícios exclusivos e sem anúncios
      Cifra Club Pro
      Aproveite o Cifra Club com benefícios exclusivos e sem anúncios
      OK