Cifra Club

Angels Cry

Angra

Tab de baixo: Principal
exibições 13.569
intro :

||---------|---------|---------|---------|---------|---------|---------|---------|
||---------|---------|---------|---------|-9---7---|-7---5---|-9---7---|---------|
||-7---5---|-5---3---|-7---5---|-5-3-----|---------|---------|---------|-5-5-----|
||---------|---------|---------|---------|---------|---------|---------|---------|

verse nr 1 :
|----------------------------------|----------------------------------|
|----------------------------------|------------2---------------------|
|--------5---5--------------2---3--|--------5----------------2h3---2h3|
|-3--------------3------3----------|-3--------------3------3-----3----|

|----------------------------------|----------------------------------|
|----------------------------------|------------2---------------------|
|--------5---5--------------2---3--|--------5----------------2h3---2h3|
|-3--------------3------3----------|-3--------------3------3-----3----|

|----------------------------------|----------------------------------|
|----------------------------------|------------2---------------------|
|--------5---5--------------2---3--|--------5----------------2h3---2h3|
|-3--------------3------3----------|-3--------------3------3-----3----|

|----------------------------------|----------------------------------|
|----------------------------------|------------2--------------3--3---|
|--------5---5--------------2---3--|--------5-----------------5--5-5--|
|-3--------------3------3----------|-3--------------3------3-6--6---6-|

chorus :
|---------|---------|---------|---------|---------|---------|---------|---------||
|---------|---------|---------|---------|-9---7---|-7---5---|-9---7---|---------||
|-7---5---|-5---3---|-7---5---|-5-3-----|---------|---------|---------|-5-5-----||
|---------|---------|---------|---------|---------|---------|---------|---------||

ponte nr 1 :
|-----------------------------------------|-----------------------------------------|
|-2-2-2---2-------------------2--2--2-1-0-|-2-2-2---2-------------------------------|
|-----------3-3-3---3---------------------|-----------3-3-3---3---------------------|
|---------------------5-5-5---------------|---------------------5-5-5---5-----------|

ponte nr 2 :
|-------------------5---5---5---5-|-------------------7---7---7---7-|
|---5---5---5---5-----------------|---7---7---7---7-----------------|
|-3---3---3---3---3---3---3---3---|-5---5---5---5---5---5---5---5---|
|---------------------------------|---------------------------------|

|-------------------5---5---5---5-|---------4---5---7---5---4-------|
|---5---5---5---5-----------------|-----7-----------------------7---|
|-3---3---3---3---3---3---3---3---|-5-------------------------------|
|---------------------------------|---------------------------------|

|---------------------------------|---------------------4-5-7-5-4---|
|-----2-3-5-3-2-------5-6-8-6-5---|-----4-5-7-5-4---5---------------|
|-3---------------6---------------|-5-------------------------------|
|---------------------------------|---------------------------------|

|------9-10-12-10-9-------9-10-12-10-9---|-----7-9-7------------------------|
|-10------------------9------------------|-7-9-------9-7--------------------|
|----------------------------------------|---------------10-8---------------|
|----------------------------------------|----------------------------------|

durante o primeiro solo de violão:
|---------|---------|---------|---------|---------|---------|---------|---------|
|---------|---------|---------|---------|---------|---------|---------|-----3---|
|---------|---------|---------|---------|---------|---------|---------|---------|
|-1-------|-1-------|-1-------|-1-------|-1-------|-1-------|-1-------|-1-------|

|---------|---------|---------|-------------------------------|---------|---------|
|---------|---------|---------|----------------3-(1)/3-2-1-1h0|---------|-----3-3-|
|---------|---------|---------|-------------------------------|---------|---------|
|-1-------|-1-------|-1-------|-1-----------------------------|-1-------|-1-------|

|---------|---------|---------|---------|---------|---------|---------|---------|
|---------|-----3--3|---------|---------|---------|-----3-3-|---------|---------|
|---------|---------|---------|---------|---------|---------|---------|---------|
|-1-------|-1-------|-1-------|-1---1-1-|-1---1-1-|-1-------|-1---1-1-|-1-------|

baixos solo (e então segundo solo de violão):
|-----------------------------|-----------------------------|-----------------------------|
|-------2-2-2---2---2---2-----|-----------2---2---2---2-----|-------------2---2-----2-----|
|-----1-----------1-------1---|-----1-3-3-------1-------1---|-------1---1-------1-----1---|
|-1-------------------------2-|-0-------------------------2-|-1---1-----------------------|

|-----------------------------|-----------------------------|-----------------------------|
|-------------2---2-----2-----|-----------2---2---2-----2---|-------------2---2-----2-----|
|-------1---1-------1-----1---|-----1-3-3-----------1-----1-|-------1---1-------1-----1---|
|-1---1-----------------------|-1---------------------------|-1---1-----------------------|

|-----------------------------|-----------------------------|-----------------------------|
|-------------2---2-----2-----|-----------2---2---2---2-----|-------------2-2---2---------|
|-------1---1-------1-----1---|-----1-3-3-------1-------1---|-------1---1---------1-------|
|-1---1-----------------------|-1-------------------------2-|-1---1-----------------------|

|-----------------------------|-----------------------------|-----------------------------|
|-------------2-2-2---2---2---|-----------2---2---2---2-----|---------2-2/5---3-2---------|
|-------1---1-----------1---1-|-------1-1-------1-------1---|-------1-------------3-2-----|
|-1---1-----------------------|-1---1---------------------2-|-1---1-----------------------|

|-----------------------------|-----------------------------|-----------------------------|
|-------------------------2---|-------------------------2---|-------------------------2---|
|-------2-------------2-----1-|-------3-------------3-----1-|-------4-------------4-----1-|
|-1---1-----1---1---1---------|-1---1-----1---1---1---------|-1---1-----1---1---1---------|

|-----------------------------|-----------------------------|-----------------------------|
|-------3-------------3---2---|-------2-2-2---2-----2---2---|-------2-2-2---2---2-----2---|
|-1---1-----1---1---1-------1-|-------------------1-------1-|---------------------1-----1-|
|-----------------------------|-1---1-----------------------|-1---1-----------------------|

|-----------------------------|-----------------------------|-----------------------------|
|-------------------------2---|-----------------------------|-------2-2-2---2-----2---2---|
|-------2-------------2-----1-|-------2-2/5---3-2-----------|-------------------1-------1-|
|-1---1-----1---1---1---------|-1---1-------------3-2-------|-1---1-----------------------|

|-----------------------------|-----------------------------|-----------------------------|
|-------2-2-2---2---2-----2---|-------2-2-2---2---2-----2---|-------2-2/5---3-2-----------|
|---------------------1-----1-|---------------------1-----1-|-------------------3-2-------|
|-1---1-----------------------|-1---1-----------------------|-1---1-----------------------|

|-----------------------------|-----------------------------|-----------------------------|
|-------------------------2---|-------------------------2---|---------------------2---2---|
|-------2-------------2-----1-|-------3-------------3-----1-|-------2---2---2---2-------1-|
|-1---1-----1---1---1---------|-1---1-----1---1---1---------|-1---1-----------------------|

|-----------------------------|-----------------------------|-----------------------------|
|-------2-2-2---2-----2---2---|-------------------------2---|-----------2---2---2-----2---|
|-------------------1-------1-|-------2-------------2-----1-|-------3-------------1-----1-|
|-1---1-----------------------|-1---1-----1---1---1---------|-1---1-----------------------|

|-----------------------------|---------------------|
|-----------2---2---2-----2---|---------------------|
|-------2-------------1-----1-|-------2-----3---4---|
|-1---1-----------------------|-1---1-----1---1-----|

ponte nr 3 :
|---------|-------|-----------------|-------------|-----------------|-----------------|
|---------|-------|-----------------|-------------|-----------------|-----------------|
|-5---3---|-5--3--|-5-------3-------|-5-------3---|-----------------|-----------------|
|---------|-------|-----------------|-------------|-2-2-2-2-2-2-2-2-|-2-2-2-2-2-2-----|

|---------|-------|-----------------|-------------|-----------------|-----------------|
|---------|-------|-----------------|-------------|-----------------|-----------------|
|-5---3---|-5--3--|-----------------|-------------|-5-------7-------|-5-------7-------|
|---------|-------|-2-2-2-2-2-2-2-2-|-2-2-2-2-2-2-|-----------------|-----------------|

|-----------------|---------------------------------|---------------------------------|
|-----------------|---------------------------------|-----3---5---3---3-3---3---3-3---|
|-5-3-5-3-5-3-1---|-5-3---5-3-5-3-5-3---5---3---5---|-7-------------------------------|
|-----------------|---------------------------------|---------------------------------|

verse nr 2 :
|----------------------------------|----------------------------------|
|----------------------------------|------------2---------------------|
|--------5---5--------------2---3--|--------5----------------2h3---2h3|
|-3--------------3------3----------|-3--------------3------3-----3----|

|----------------------------------|----------------------------------|
|----------------------------------|------------2--------------3--3---|
|--------5---5--------------2---3--|--------5-----------------5--5-5--|
|-3--------------3------3----------|-3--------------3------3-6--6---6-|

|----------------------------------|----------------------------------|
|----------------------------------|------------2---------------------|
|--------5---5--------------2---3--|--------5----------------2h3---2h3|
|-3--------------3------3----------|-3--------------3------3-----3----|

|----------------------------------|----------------------------------|
|----------------------------------|------------2---------------------|
|--------5---5--------------2---3--|--------5----------------2h3---2h3|
|-3--------------3------3----------|-3--------------3------3-----3----|

intro
verse nr 1
chorus
ponte nr 1
ponte nr 2
first guitar solo
baixo solo (e então segundo solo de violão):
ponte nr 3
verse nr 2
chorus
ponte nr 1
ponte nr 2
chorus (but 2 times slower)

_______________________________________________________
Contribuição: André Luiz de Melo Santos(And_rj@bol.com.br)
Composição: Bittencourt / Matos

0 comentários

    mostrar mais comentários

    Conseguiu tocar?

    0tocaram0ainda não

    Grave um vídeo tocando Angels Cry e mande pra gente!

    00:00 / 00:00
    outros vídeos desta música
    repetirqualidadeautomática
    Outro vídeos desta música
      00:00 / 00:00
      automática
      OK