Cifra Club

Caça e Caçador

Angra

Cifra: Principal
exibições 39.760
Tom: A
e---------------------------|-------------------------------|--------------------------|-----------------------|
B----7--5--7----5-0h3---5h0-|-3h0---0-----3-----------------|---7--5-8---7-5h7---7h0---|--5h0------0-----3-----|
G----7--5--7----5-0h4---5h0-|-4h0---0-----2-----------------|---7--5-9---7-5h7---7h0---|--5h0----0-------2-----|
D--0----------0-------0-----|-----0---0-0----------2h0---4--|-0--------0-------0-------|-------0------0--------|
A---------------------------|----------------0-2h3-----3----|--------------------------|-----------------------|
E---------------------------|-------------------------------|--------------------------|-----------------------|

e---------------------------|-------------------------------|--------------------------|--------------------3--|
B----7--5--7----5-0h3---5h0-|-3h0---0-----3-----------------|---7--5-8---7-5h7---7h0---|--5h0------0-----3--3--|
G----7--5--7----5-0h4---5h0-|-4h0---0-----2-----------------|---7--5-9---7-5h7---7h0---|--5h0----0-------2-----|
D--0----------0-------0-----|-----0---0-0----------2h0---4--|-0--------0-------0-------|-------0------0--------|
A---------------------------|----------------0-2h3-----3----|--------------------------|-----------------------|
E---------------------------|-------------------------------|--------------------------|-----------------------|

e---------------------------|-------------------------------|--------------------------|-----------------------|
B-------3-------------------|-------------------------------|--------------------------|-----------------------|
G-------2-------------------|-------------------------------|---5----------------------|-----------------------|
D-------0-------------------|-------------------------------|---5----------------------|---5-------------------|
A-------0-------------------|-------------------------------|---3----------------------|---5-------------------|
E---------------------------|-------------------------------|--------------------------|---3-------------------|

e---------------------------|-------------------------------|--------------------------|-----------------------|
B----7--5--7----5-0h3---5h0-|-3h0---0-----3---------3-------|----6--5--6---5---6h5-----|-----------------------|
G----7--5--7----5-0h4---5h0-|-4h0---0-----2---------2-------|----5--5--5---5---5-------|--9h7-----9h7---9------|
D--0----------0-------0-----|-----0---0-0-------------------|--------------------------|--7-------7-----7------|
A---------------------------|-------------------------------|--8--------------8-----8--|-------0------0--------|
E---------------------------|-------------------------------|--------------------------|-----------------------|

e--------------------------------|-------------------------------|--------------------------|-----------------------|
B--------------------------------|-------------------------------|--------------------------|-----------------------|
G----------5-------4-------------|-------------------------------|-------5---4-------------9|--7--------------5-6-7-|
D--------------------------7---4-|--------2h4---2-----2-4---2-4--|---------------7--5--4----|----9-6--6-7-5--7------|
A-5-5-5-5----5-5-5---5-5-5---5---|--5-2-5-----5---2-5-----5------|-5-5-5---5---5---5--5--5--|--------7------------5-|
E--------------------------------|-------------------------------|--------------------------|-----------------------|

e--------------------------------|-------------------------------|--------------------------|-----------------------|
B--------------------------------|-------------------------------|--------------------------|-----------------------|
G----------5-------4-------------|-------------------------------|-------5---4-------------9|--7--------------5-6-7-|
D--------------------------7---4-|--------2h4---2-----2-4---2-4--|---------------7--5--4----|----9-6--6-7-5--7------|
A-5-5-5-5----5-5-5---5-5-5---5---|--5-2-5-----5---2-5-----5------|-5-5-5---5---5---5--5--5--|--------7------------5-|
E--------------------------------|-------------------------------|--------------------------|-----------------------|

e--------------------------------|-------------------------------|--------------------------|-----------------------|
B--------------------------------|-------------------------------|--------------------------|-----------------------|
G----------9-------7------5------|-------------------------------|-------9---7---5--------13|11-------------6-5-6-7-|
D------------------------------7-|--------5h7---5-----5-7---5-7--|------------------9--7----|---12-9--9-11-9--------|
A-5-5-5-5----5-5-5---5-5-5---5---|--9-5-9-----9---5-9-----9------|-5-5-5---5---5---5--5--5--|-------11------------5-|
E--------------------------------|-------------------------------|--------------------------|-----------------------|

e--------------------------------|-------------------------------|---------------------------|------------------------------|
B--------------------------------|-------------------------------|---------------------------|------------------------------|
G--------------------------------|-------------------------------|---------------------------|------------------------------|
D-0-0-0-2h0-0-0-4h0-0-0-5h0-0----|-0-0-0-2h0-0-0-4h0-0-0-7h0-0---|-0-0-12h0-0-0-10h0-0-9h0-10|-0-7h0-5h0-7h0-4h0-5h0-2h0-4h0|
A--------------------------------|-------------------------------|---------------------------|------------------------------|
E--------------------------------|-------------------------------|---------------------------|------------------------------|

e--------------------------------|-------------------------------|--------------------------|-----------------------|
B--------------------------------|-------------------------------|--------------------------|-----------------------|
G----------5-------4-------------|-------------------------------|-------5---4-------------9|--7--------------5-6-7-|
D--------------------------7---4-|--------2h4---2-----2-4---2-4--|---------------7--5--4----|----9-6--6-7-5--7------|
A-5-5-5-5----5-5-5---5-5-5---5---|--5-2-5-----5---2-5-----5------|-5-5-5---5---5---5--5--5--|--------7------------5-|
E--------------------------------|-------------------------------|--------------------------|-----------------------|

e--------------------------------|-------------------------------|--------------------------|-----------------------|
B--------------------------------|-------------------------------|--------------------------|-----------------------|
G----------9-------7------5------|-------------------------------|-------9---7---5--------13|11-------------6-5-6-7-|
D------------------------------7-|--------5h7---5-----5-7---5-7--|------------------9--7----|---12-9--9-11-9--------|
A-5-5-5-5----5-5-5---5-5-5---5---|--9-5-9-----9---5-9-----9------|-5-5-5---5---5---5--5--5--|-------11------------5-|
E--------------------------------|-------------------------------|--------------------------|--------------------                                                                                                                                                                                                                                                                                                                                                                                                                                                                                                                                                                                                                                                                                                                                                                                                                                                                                                                                                                                                                                                                                                                                                                                                                                                                                                                                                                                                                                                                                                                                                                                                                                                                                                                                                                                                                                                                                                                                                                                                               
                                                                                                                                                                                                                                                                                                                                                                                                                                                                                                                                                                                                                                                                                                                                                                                                                                                                                   
                                                                                                                                                                                                                                                                                                                                                                                                                                                                                                                                                                                                                                                                                                                                                                                                                                                                                                                                                                                                                                                               
                                                                                                                                                                                                                                                                                                                                                                                                                                                                                                                                                                                                                                                                                                                                                                                                                                                                                                                                                                                                                                                              
e---------------------------|-------------------------------|--------------------------|-----------------------|
B---------------------------|-------------------------------|--------------------------|-----------------------|
G---------------------------|-------------------------------|--------------------------|-----------------------|
D-------5---7-----5----7----|------5---7-----------10\------|-----5----7------5----7---|---5---7-------3-------|
A-------3---5-----3----5----|------3---5------------8\------|-----3----5------3----5---|---3---5-------1-------|
E-------3---5-----3----5----|------3---5------------8\------|-----3----5------3----5---|---3---5-------1-------|
                                                                                                                                                                                                                                                                                                                                                                                                                                                                                                                                                                                                                                                                                                                                                                                                                                                                                                                                                                                                                                                                                                                                                                                                                                                                                                                                                                                                                                                                                                                                                                                                                                                                                                                                                                                                                                                                                                                                                                                                                                                                                                                                
e---------------------------|-------------------------------|--------------------------|-----------------------|
B---------------------------|-------------------------------|--------------------------|-----------------------|
G---------------------------|-------------------------------|--------------------------|-----------------------|
D---------------------------|-------------------------------|--------------------------|-----------------------|
A---5---5----5----5---------|---5-----5----5------5----5----|---5------5-----5----5----|-----------------------|
E---------------------------|-------------------------------|--------------------------|-----------------------|

                                                                                                                                                                                                                                                                                                                                                                                                                                                                                                                                                                                                                                                                                                                                                                                                                                                                                                                                                                                                                                                                                                                                                                                                                                                                                                                                                                                                                                                                                                                                                                                                                                                                                                                                                                                                                                                                                                                                                                                                                                                                                                                                
e---------------------------|-------------------------------|--------------------------|-----------------------|
B---------------------------|-------------------------------|--------------------------|-----------------------|
G---------------------------|-------------------------------|--------------------------|-----------------------|
D---------------------------|-------------------------------|--------------------------|-----------------------|
A---5---5----5----5---------|-----5-----5-----5-----5---5---|--------------------------|--5---5-----5--5----5--|
E---------------------------|-------------------------------|----5--5---5---5----5-----|-----------------------|

                                                                                                                                                                                                                                                                                                                                                                                                                                                                                                                                                                                                                                                                                                                                                                                                                                                                                                                                                                                                                                                                 
e---------------------------|-------------------------------|--------------------------|-----------------------|
B---------------------------|-------------------------------|--------------------------|-----------------------|
G---------------------------|-------------------------------|--------------------------|-----------------------|
D---------------------------|-------------------------------|--------------------------|-----------------------|
A---5---5----5----5---------|-------------------------------|---2--2---2-----2----2----|---5---5----5----5--5--|
E---------------------------|----3----3----3-------3----3---|--------------------------|-----------------------|



                                                                                                                                                                                                                                                                                                                                                                                                                                                                                                                                                                                                                                                                                                                                                                                                                                                                                                                                                                                                                                                                
e---------------------------|-------------------------------|--------------------------|-----------------------|
B---------------------------|-------------------------------|--------------------------|-----------------------|
G---------------------------|-------------------------------|--------------------------|-----------------------|
D---------------------------|-------------------------------|--------------------------|-----------------------|
A---5---5----5----5---------|---7-----7----7------7----7----|--------------------------|-----------------------|
E---------------------------|-------------------------------|----5---5-----5----5---5--|-----------------------|

e---------------------------|-------------------------------|--------------------------|--------------------3--|
B----7--5--7----5-0h3---5h0-|-3h0-----0-----3---------------|---7--5-8---7-5h7---7h0---|--5h0------0-----3--3--|
G----7--5--7----5-0h4---5h0-|-4h0---0-------2---------------|---7--5-9---7-5h7---7h0---|--5h0----0-------2-----|
D--0----------0-------0-----|-----0------0------------------|-0--------0-------0-------|-------0------0--------|
A---------------------------|-------------------------------|--------------------------|-----------------------|
E---------------------------|-------------------------------|--------------------------|-----------------------|

e---------------------------|-------------------------------|--------------------------|-----------------------|
B-------3-------------------|-------------------------------|---3----------------------|------------3----------|
G-------2-------------------|---5---------------------------|---2----------------------|------------2----------|
D-------0-------------------|---5---------------------------|---0-----2----------------|---5--------0----------|
A-------0-------------------|---3---------------------------|---0-----2----------------|---5--------0----------|
E---------------------------|-------------------------------|---------0----------------|---3-------------------|

2 parte

e---------------------------|-------------------------------|--------------------------|-----------------------|
B---------------------------|-------------------------------|--------------------------|-----------------------|
G---------------------------|-------------------------------|--------------------------|-----------------------|
D---------------------------|-------------------------------|--------------------------|-----------------------|
A---5---5----5----5---------|-----5-----5-----5-----5---5---|--------------------------|--5---5-----5--5----5--|
E---------------------------|-------------------------------|----5--5---5---5----5-----|-----------------------|

e---------------------------|-------------------------------|--------------------------|-----------------------|
B---------------------------|-------------------------------|--------------------------|-----------------------|
G---------------------------|-------------------------------|--------------------------|-----------------------|
D---------------------------|-------------------------------|--------------------------|-----------------------|
A---5---5----5----5---------|-------------------------------|---2--2---2-----2----2----|---5---5----5----5--5--|
E---------------------------|----3----3----3-------3----3---|--------------------------|-----------------------|


                                                                                                                                                                                                                                                                                                                                                                                                                                                                                                                                                                                                                                                                                                                                                                                                                                                                                                                                                                                                                                                                
e---------------------------|-------------------------------|--------------------------|-----------------------|
B---------------------------|-------------------------------|-------------------3------|--3----3----3-----3----|
G---------------------------|-------------------------------|-------------------2------|--2----2----2-----2----|
D---------------------------|-------------------------------|-------------------0------|--0----0----0-----0----|
A---5---5----5----5---------|---7-----7----7------7----7----|-------------------0------|--0----0----0-----0----|
E---------------------------|-------------------------------|----5---5-----5-----------|-----------------------|


                                                                                                                                                                                                                                                                                                                                                                                                                                                                                                                                                                                                                                                                                                                                                                                                                                                                                                                                                                                                                                                                
e---------------------------|-------------------------------|--------------------------|-----------------------|
B----3--3-------3--3--------|-------------------------------|------------3-------------|-----------------------|
G----2--2-------2--2--------|-------------------------------|------------2-------------|-----------------------|
D----0--0-------0--0----4---|--------2----------------------|----5-------0-------------|----4---------2--------|
A----0--0-------0--0----2---|--------2----------------------|----5-------0-------------|----2---------2--------|
E---------------------------|--------0----------------------|----3---------------------|--------------0--------|

                                                                                                                                                                                                                                                                                                                                                                                                                                                                                                                                                                                                                                                                                                                                                                                                                                                                                                                                                                                                                                                                
e---------------------------|-------------------------------|--------------------------|-----------------------|
B---------------------------|-------------------------------|--------------------------|--7--------------------|
G---7-----6--4-----7--6--4--|--7---7-7-------9------7--6----|--7------6-4------7--6--4-|--6--------------------|
D---5-5-5-5--5-5-5-5--5--5--|--7-7-7-6--7--7-7-7-7--7--7----|--5-5-5--5-5--5-5-5--5--5-|--4--------------------|
A---------------------------|-------------------------------|--------------------------|--4--------------------|
E---------------------------|-------------------------------|--------------------------|-----------------------|

e---------------0-----------|----------------0--------------|-------------0------------|----------3--2---0-----|
B---------3----------3------|----------3-----------3--------|--------2---------2-------|--------3-----------3--|
G-------2---------------2---|--------2----2-----------2-----|------4----4----------4---|------0----------------|
D-----4------2--------------|------4------------------------|----2---------------------|----0------------------|
A---2-----------------------|----5--------------------------|--0-----------------------|-----------------------|
E---------------------------|-------------------------------|--------------------------|--3--------------------|

e---------------0-----------|----------------0--------------|-------------0------------|--------2-----------3--|
B---------3----------3------|----------3-----------3--------|--------3---------3-------|------3----3--------3--|
G-------2---------------2---|--------2----2-----------2-----|------0----0---------0----|----4--------4---6-----|
D-----4------2--------------|------4------------------------|----4---------------------|-5-------------5-------|
A---2-----------------------|----5--------------------------|--------------------------|-----------------------|
E---------------------------|-------------------------------|--0-----------------------|-----------------------|

e--------------------------------|-------------------------------|--------------------------|-----------------------|
B--------------------------------|-------------------------------|--------------------------|-----------------------|
G----------5-------4-------------|-------------------------------|-------5---4-------------9|--7--------------5-6-7-|
D--------------------------7---4-|--------2h4---2-----2-4---2-4--|---------------7--5--4----|----9-6--6-7-5--7------|
A-5-5-5-5----5-5-5---5-5-5---5---|--5-2-5-----5---2-5-----5------|-5-5-5---5---5---5--5--5--|--------7------------5-|
E--------------------------------|-------------------------------|--------------------------|-----------------------|

e--------------------------------|-------------------------------|--------------------------|-----------------------|
B--------------------------------|-------------------------------|--------------------------|-----------------------|
G----------5-------4-------------|-------------------------------|-------5---4-------------9|--7--------------5-6-7-|
D--------------------------7---4-|--------2h4---2-----2-4---2-4--|---------------7--5--4----|----9-6--6-7-5--7------|
A-5-5-5-5----5-5-5---5-5-5---5---|--5-2-5-----5---2-5-----5------|-5-5-5---5---5---5--5--5--|--------7------------5-|
E--------------------------------|-------------------------------|--------------------------|-----------------------|

e--------------------------------|-------------------------------|--------------------------|-----------------------|
B--------------------------------|-------------------------------|--------------------------|-----------------------|
G----------9-------7------5------|-------------------------------|-------9---7---5--------13|11-------------6-5-6-7-|
D------------------------------7-|--------5h7---5-----5-7---5-7--|------------------9--7----|---12-9--9-11-9--------|
A-5-5-5-5----5-5-5---5-5-5---5---|--9-5-9-----9---5-9-----9------|-5-5-5---5---5---5--5--5--|-------11------------5-|
E--------------------------------|-------------------------------|--------------------------|--------------------                                                                                                                                                                                                                                                                                                                                                                                                                                                                                                                                                                                                                                                                                                                                                                                                                                                                                                                                                                                                                                                                                                                                                                                                                                                                                                                                                                                                                                                                                                                                                                                                                                                                                                                                                                                                                                                                                                                                                                                                               

e---------------------------|-------------------------------|--------------------------|-----------------------|
B---------------------------|-------------------------------|--------------------------|-----------------------|
G---------------------------|-------------------------------|--------------------------|-----------------------|
D-------5---7-----5----7----|------5---7-----------10\------|-----5----7------5----7---|---5---7-------3-------|
A-------3---5-----3----5----|------3---5------------8\------|-----3----5------3----5---|---3---5-------1-------|
E-------3---5-----3----5----|------3---5------------8\------|-----3----5------3----5---|---3---5-------1-------|
 

                                                                                                                                                                                                                                                                                                                                                                                                                                                                                                                                                                                                                                                                                                                                                                                                                                                                                                                                                                                                                                                   
e---------------------------|-------------------------------|--------------------------|-----------------------|
B---------------------------|-------------------------------|--------------------------|-----------------------|
G--------6----7-----9-------|---9------7--6--7--------------|-----7----9---10----------|-----10-----9--7--9----|
D---------------------------|-------------------------------|--------------------------|-----------------------|
A---------------------------|-------------------------------|--------------------------|-----------------------|
E---------------------------|-------------------------------|--------------------------|-----------------------|


                                                                                                                                                                                                                                                                                                                                                                                                                                                                                                                                                                                                                                                                                                                                                                                                                                                                                                                                                                                                                                                   
e---------------------------|-------------------------------|--------------------------|-----------------------|
B---------------------------|------------------------10-----|--------------------------|-----------------------|
G-------------9---10---12---|--12----10----9----10----------|-----------------10-12-14-|--15-------------------|
D---------------------------|-------------------------------|---------10-12-13---------|-----------------------|
A---------------------------|-------------------------------|-10-12-13-----------------|-----------------------|
E---------------------------|-------------------------------|--------------------------|-----------------------|


                                                                                                                                                                                                                                                                                                                                                                                                                                                                                                                                                                                                                                                                                                                                                                                                                                                                                                                                                                                                                                                   
e---------------------------|-------------------------------|--------------------------|-----------------------|
B---------------------------|-------------------------------|--------------------------|-----------------------|
G-------------11---12---14--|--14----12--11--12-------------|-----12--14----15---------|--15--14---12--14------|
D---------------------------|-------------------------------|--------------------------|-----------------------|
A---------------------------|-------------------------------|--------------------------|-----------------------|
E---------------------------|-------------------------------|--------------------------|-----------------------|

 
                                                                                                                                                                                                                                                                                                                                                                                                                                                                                                                                                                                                                                                                                                                                                                                                                                                                                                                                                                                                                                                   
e---------------------------|-------------------------------|--------------------------|-----------------------|
B---------------------------|-------------------------------|--------------------------|-----------------------|
G-------------14---15---17--|--17----15--14--15-------------|-----15--17----19---------|--19--17---15--17------|
D---------------------------|-------------------------------|--------------------------|-----------------------|
A---------------------------|-------------------------------|--------------------------|-----------------------|
E---------------------------|-------------------------------|--------------------------|-----------------------|
                                                                                                                               


e---------------------------|-------------------------------|--------------------------|----14-----------------|
B---------------------------|-------------------------------|----15--------------------|-----------------------|
G-------------14---15---17--|--17----15--14--15-------------|--------------------------|-----------------------|
D---------------------------|-------------------------------|--------------------------|-----------------------|
A---------------------------|-------------------------------|--------------------------|-----------------------|
E---------------------------|-------------------------------|--------------------------|-----------------------|
                                                                                                                               


e---------------------------|-------------------------------|--------------------------|-----------------------|
B---------------------------|-------------------------------|----18--------------------|--22-------------------|
G-------------13---15---16--|--16----15------15-------------|--------------------------|-----------------------|
D---------------------------|-----------17------------------|--------------------------|-----------------------|
A---------------------------|-------------------------------|--------------------------|-----------------------|
E---------------------------|-------------------------------|--------------------------|-----------------------|
                                                                                                                               

                                                                                                                                                                                                                                                                                                                                                                                                                                                                                                                                                                                                                                                                                                                                                                                                                                                                                                                                                                                                                                                                
e-------------------------------|-------------------------------|---------------------------------|-------------------15--|
B-------------------------------|-------------------------------|---------------------------------|---------15--------18^-|
G-------------15^---------------|-------------------------------|----------------15^-17-15-17^-15-|-------15---17--15-----|
D-17-17-15-15----17--15---------|--------------------------17---|-14-17-15-17-17------------------|-14-17-----------------|
A------------------17--17-16-15-|-15h16h15h13-15-13----13-------|---------------------------------|-----------------------|
E-------------------------------|-------------------15----------|---------------------------------|-----------------------|

e---------------------------------------------|--------------------------------------------------|---------------------------------|
B--------8----6h8h6--------10-----8h10h8------|-------11----10h11h10-----------13----11h13h11----|---------------------------------|
G---------------------------------------------|--------------------------------------------------|---------14--14-15---15-17-15-17-|
D-----8----8--------8---10----10----------10--|-----12---12----------12-----15----15----------15-|-17-15-17--17------17------------|
A---6-----------------8-----------------------|--10---------------------12-----------------------|---------------------------------|
E---------------------------------------------|--------------------------------------------------|---------------------------------|

e------------------------------------|--------------------------------------------------------------------15--------|
B------------------------------------|----------------------------------------13----13-15h13----18h15-18------18h15-|
G----17h18h17h15----17-15------------|----------12--------14h12-----15h14--12----15----------15---------------------|
D----------------17---------17-15-17-|-15h12-------15h12---------14-------------------------------------------------|
A------------------------------------|-------15---------------------------------------------------------------------|
E------------------------------------|------------------------------------------------------------------------------|
  
e--18h15----20h15----18h15----------|---------------------------------------------------|--------10h11h10---------10h11h10----------13h15h13-----------13h15h13-----|
B--------17-------18--------18-18-^-|-------10h11h10-----------------11h13h11-----------|---------------------------------------------------------------------------|
G-----------------------------------|---------------------------------------------------|--10h12-----------10h12------------1212h15-----------15h12h15-----------15-|
D-----------------------------------|----12-----------12----12----15----------15----15--|---------------------------------------------------------------------------|
A-----------------------------------|-10-----------------10----10----------------12-----|---------------------------------------------------------------------------|
E-----------------------------------|---------------------------------------------------|---------------------------------------------------------------------------|

e----------------------------------------------------------|--------------------------------------------------------------|
B----------------------------------------------------------|----------15^-18----15----------------------------------------|
G-----------14--14--14--15--15--15--17--17--17^------------|----15-17^-------17----17-17--16-15---------------------------|
D-----17---------------------------------------------------|-------------------------------------17-15--------------------|
A----------------------------------------------------------|--------------------------------------------17-15-15-14-13----|
E----------------------------------------------------------|--------------------------------------------------------------|

e----------------------------------------|--------------------------------------------|--------------------------------------3-|--------------------------|
B----------------------------------------|--------------------------------------------|--------------------------------------3-|--------------------------|
G-------------------------12-15-14-12----|--------------------------------13-12-------|-----------------------------11-10----0-|---2----------------------|
D--------12-15-14-12---14-------------15-|-13-----------------------12-15-------15-13-|-11-11------------------10-13------13-0-|---2----------------------|
A-----13-------------15------------------|-----15-12----12-15-14-13-------------------|-------15-15-13-13-10-11----------------|---0----------------------|
E--15------------------------------------|-----------13-------------------------------|----------------------------------------|--------------------------|

e---------------------------|-------------------------------|--------------------------|-----------------------|
B----7--5--7----5-0h3---5h0-|-3h0---0-----3-----------------|---7--5-8---7-5h7---7h0---|--5h0------0-----3-----|
G----7--5--7----5-0h4---5h0-|-4h0---0-----2-----------------|---7--5-9---7-5h7---7h0---|--5h0----0-------2-----|
D--0----------0-------0-----|-----0---0-0----------2h0---4--|-0--------0-------0-------|-------0------0--------|
A---------------------------|----------------0-2h3-----3----|--------------------------|-----------------------|
E---------------------------|-------------------------------|--------------------------|-----------------------|

e---------------------------|-------------------------------|--------------------------|-----------------------|
B-------3-------------------|-------------------------------|--------------------------|-----------------------|
G-------2-------------------|-------------------------------|---5----------------------|-----------------------|
D-------0-------------------|-------------------------------|---5----------------------|---5-------------------|
A-------0-------------------|-------------------------------|---3----------------------|---5-------------------|
E---------------------------|-------------------------------|--------------------------|---3-------------------|

e---------------------------|-------------------------------|--------------------------|-----------------------|
B----7--5--7----5-0h3---5h0-|-3h0---0-----3---------3-------|----6--5--6---5---6h5-----|-----------------------|
G----7--5--7----5-0h4---5h0-|-4h0---0-----2---------2-------|----5--5--5---5---5-------|--9h7-----9h7---9------|
D--0----------0-------0-----|-----0---0-0-------------------|--------------------------|--7-------7-----7------|
A---------------------------|-------------------------------|--8--------------8-----8--|-------0------0--------|
E---------------------------|-------------------------------|--------------------------|-----------------------|

e---------------------------|-------------------------------|--------------------------|----------------------|
B-------3-------------------|-------------------------------|--------------------------|----------------------|
G-------2-------------------|-------------------------------|--------------------------|---2------------------|
D-------0-------------------|-------------------------------|--3-----------------------|---2------------------|
A-------0-------------------|-------------------------------|--3-----------------------|---0------------------|
E---------------------------|-------------------------------|--1-----------------------|----------------------|

e---------------------------|-------------------------------|--------------------------|-----------------------|
B----3--3-------3--3--------|-------------------------------|------------3-------------|-----------------------|
G----2--2-------2--2--------|-------------------------------|------------2-------------|-----------------------|
D----0--0-------0--0----4---|--------2----------------------|----5-------0-------------|----4---------2--------|
A----0--0-------0--0----2---|--------2----------------------|----5-------0-------------|----2---------2--------|
E---------------------------|--------0----------------------|----3---------------------|--------------0--------|


                                                                                                                                                                                                                                                                                                                                                                                                                                                                                                                                                                                                                                                                                                                                                                                                                                                                                                                                                                                                                                                                
e---------------------------|-------------------------------|--------------------------|-----------------------|
B---------------------------|-------------------------------|--------------------------|--7--------------------|
G---7-----6--4-----7--6--4--|--7---7-7-------9------7--6----|--7------6-4------7--6--4-|--6--------------------|
D---5-5-5-5--5-5-5-5--5--5--|--7-7-7-6--7--7-7-7-7--7--7----|--5-5-5--5-5--5-5-5--5--5-|--4--------------------|
A---------------------------|-------------------------------|--------------------------|--4--------------------|
E---------------------------|-------------------------------|--------------------------|-----------------------|

e---------------0-----------|----------------0--------------|-------------0------------|----------3--2---0-----|
B---------3----------3------|----------3-----------3--------|--------2---------2-------|--------3-----------3--|
G-------2---------------2---|--------2----2-----------2-----|------4----4----------4---|------0----------------|
D-----4------2--------------|------4------------------------|----2---------------------|----0------------------|
A---2-----------------------|----5--------------------------|--0-----------------------|-----------------------|
E---------------------------|-------------------------------|--------------------------|--3--------------------|

e---------------0-----------|----------------0--------------|-------------0------------|--------2-----------3--|
B---------3----------3------|----------3-----------3--------|--------3---------3-------|------3----3--------3--|
G-------2---------------2---|--------2----2-----------2-----|------0----0---------0----|----4--------4---6-----|
D-----4------2--------------|------4------------------------|----4---------------------|-5-------------5-------|
A---2-----------------------|----5--------------------------|--------------------------|-----------------------|
E---------------------------|-------------------------------|--0-----------------------|-----------------------|

e--------------------------------|-------------------------------|--------------------------|-----------------------|------------------------------|-------------------------------|
B--------------------------------|-------------------------------|--------------------------|-----------------------|------------------------------|------------------------10--9--|
G----------5-------4-------------|-------------------------------|-------5---4-------------9|--7--------------5-6-7-|-7-----------------5-6--11----|---7----7---------7--9---------|
D--------------------------7---4-|--------2h4---2-----2-4---2-4--|---------------7--5--4----|----9-6--6-7-5--7------|----9-6---6-7-5--7------------|-----7----7---8-9--------------|
A-5-5-5-5----5-5-5---5-5-5---5---|--5-2-5-----5---2-5-----5------|-5-5-5---5---5---5--5--5--|--------7--------------|--------7---------------------|-------------------------------|
E--------------------------------|-------------------------------|--------------------------|-----------------------|------------------------------|-------------------------------|

e------------------------------------|-----------------------------------|
B----7-------------------------------|-----------------------------------|
G--------9---7----------------6--7---|------5---7---5----5---5---5-----5-|
D---------------9--6-7-5-7--7----7---|------5---7---5----5---5---5-----5-|
A--------------------------------5---|------3---5---3----3---3---3-----7-|
E--------------------------------5---|------3---5---3----3---3---3-----7-|


Caça e Caçador
(Loureiro/Bittencourt/Falaschi/Priester)

Vai como um rei
Voa na presa
Espanta de vez
E a fome vem

Cruzando rios,
Montes e céus
Vaga no ar
Só outra vez

Morrendo o dia
Respira exausto
Estória sem fim
Matar ou morrer

Atrás da trilha
Olhos de águia
Fitam coelhos
Fogo de palha

Não sei bem quem sou
Caça ou caçador
Hoje e amanhã
O rio vai e eu vou atrás

A esperar resposta
Pro que vou dizer
Se o dia foi da caça 
Quem irá saber?

Espero que o tempo
Faça-me entender
Que o corpo cai na terra
E ela há de comer, tudo outra vez!

Não sei bem quem sou
Nem pra onde vou 
Sabes quem tu és
O rio vai e eu vou atrás 

A esperar que o vento
Cobra ou condor
O dia foi da caça
Ou do caçador?

Espero que o tempo
Faça-me entender
Que o corpo cai na terra
E ela há de comer,
Tudo outra vez 
Tudo outra vez
Tudo outra vez!!!
Acordes para:

    0 comentários

      mostrar mais comentários

      Conseguiu tocar?

      0tocaram0ainda não

      Grave um vídeo tocando Caça e Caçador e mande pra gente!

      00:00 / 00:00
      outros vídeos desta música
      repetirqualidadeautomática
      Outro vídeos desta música
        00:00 / 00:00
        automática
        OK