Cifra Club

Deep Blue

Angra

Cifra: Principal
exibições 13.285
Tom: A#
Intro: PIANO

Am     F             G  E
Three cliffs there stand
Am     F          G         Em 
High above where high winds howl
Am  F       G     E   
Surrounding silence
Am           F       G             Em 
Three birds climb, then turn to fall 

Eb           Cm              Gm        Bb
Waiting for someday when the ocean and sky
Eb               Cm            Gm    Bb 
Will cover up the land in deep blue 
Eb              Cm           Gm 
Renaissance is over and I wonder:
Bb
- Should I 
G#           Cm      D
always be the same once again? 

A5      F5*      G5   E5
Take my hand and follow
A5        F5*        G5       E5 
Sweeping trees, the coats of green 
A5          F5*     G5   E5
Time has no place A5        F5*     G5      E5
Feel the good in endless dreams 

Eb           Cm               Gm        Bb
Waiting for someday when the ocean and sky
Eb                Cm            Gm  Bb 
Will cover up the land in deep blue 
Eb                Cm       Gm
Renaissance is over and I wonder: 
  Bb
- Should I
G#                 Cm
close my eyes and pray? 
G#             Cm   D
Always be the same once again?

( CORO COM PIANO E ORQUESTRA )

Eb5          Cm5             Gm5       Bb5
Waiting for someday when the ocean and sky
Eb5              Cm5           Gm5   Bb5 
Will cover up the land in deep blue 
Eb5              Cm5          Gm5 
Renaissance is over and I wonder:
Bb5
- Should I 
G#5               Cm5     
close my eyes and pray?
G#5               Cm5 
Feel like I've betrayed?
G#5           Cm5   D5
Always be the same?

Solo
E|----18------------------------|----------------|
B|-20----20--18-18--18/20--16~--|-16-15-15/16----|
G|------------------------------|-------------15-|
D|------------------------------|----------------|
A|------------------------------|----------------|
E|------------------------------|----------------|

E|----------|-----------------------------|
B|-------18~|-18-16-16-15----15-----------|
G|-15-15----|-------------17----17/15-----|
D|----------|-------------------------17--|
A|----------|-----------------------------|
E|----------|-----------------------------|

E|-----------------------------------------|
B|-----------------------------------------|
G|-----------------------------------------|
D|-17/18-17-15-13/15-13/12-13/12-----------|
A|-------------------------------13/12-----|
E|-------------------------------------15--|

E|----------------|--------------------------------|
B|----------------|-----------------17/20-20b-20-20|
G|----------------|-20b-17-20-17/20----------------|
D|----------------|--------------------------------|
A|----13-12-15-17-|--------------------------------|
E|-15-------------|--------------------------------|

E|-------------|-----------------------------------|
B|-16/15-------|----------15-15/16-15--------------|
G|-------17-15-|17~-15-17-------------17-15--------|
D|-------------|----------------------------17-----|
A|-------------|-----------------------------------|
E|-------------|-----------------------------------|

E|---------------------------|
B|---------------------------|
G|-------15/17-15------------|
D|-15/17----------17-17------|
A|---------------------------|
E|---------------------------|

Eb5               Cm5         Gm5       Bb5
Waiting for someday when the ocean and sky 
Eb5               Cm5          Gm5  Bb5
Will cover up the land in deep blue 
Eb5            Cm5         Gm5
Renaissance is over and I wonder: 
Bb5
Should I  
G#            Cm    D
Always be the same once again
                G|-19-20-19-|
Acordes para:
    Composição: Andre MatosColaboração e revisão:
    • Heitor Marcel

    0 comentários

      mostrar mais comentários

      Conseguiu tocar?

      0tocaram0ainda não

      Grave um vídeo tocando Deep Blue e mande pra gente!

      00:00 / 00:00
      outros vídeos desta música
      repetirqualidadeautomática
      Outro vídeos desta música
        00:00 / 00:00
        automática
        OK