Cifra Club

Evil Warning

Angra

Tab de baixo: Principal
exibições 1.964
Solo de Baixo

    Dm
    T  T     T  T     T     T  T     T  T     T
G-|-------------------------------------------------|-
D-|-12-------12-------12----12-------12-------12----|-
A-|----12-------12-------------12-------12----------|-
E-|-------10-------10----10-------10-------10----10-|-

    T  T     T  T     T     T  T     T  T     T
G-|-------------------------------------------------|-
D-|-12-------12-------12----12-------12-------12----|-
A-|----12-------12-------------12-------12----------|-
E-|-------10-------10----10-------10-------10----10-|-

    C
    T  T    T  T    T    T  T    T  T    T
G-|-------------------------------------------|-
D-|-10------10------10---10------10------10---|-
A-|----10------10-----------10------10--------|-
E-|-------8-------8----8-------8-------8----8-|-

    Am              Bb
    T T   T T   T   T T   T T   T
G-|---------------------------------|-
D-|-7-----7-----7---8-----8-----8---|-
A-|---7-----7---------8-----8-------|-
E-|-----5-----5---5-----6-----6---6-|-

    Dm
       T  T     T     T     T     T     T     T  T
G-|----------10-14-10-15-10-14-10-15-10-14-10-------|-
D-|-------12----------------------------------12----|-
A-|----12----------------------------------------12-|-
E-|-10----------------------------------------------|-

       T  T     T     T     T     T     T     T  T
G-|----------10-14-10-15-10-14-10-15-10-14-10-------|-
D-|-------12----------------------------------12----|-
A-|----12----------------------------------------12-|-
E-|-10----------------------------------------------|-

    G
       T  T     T  T     T     T  T     T  T     T
G-|-------------------------------------------------|-
D-|-14-------14-------14----14-------14-------14----|-
A-|-------15-------15-------------15-------15-------|-
E-|----15-------15-------15----15-------15-------15-|-

    Em                      F                           Dm
       T  T     T  T     T     T  T     T  T     T
G-|-------------------------------------------------||-------|-
D-|-10-------10-------10----12-------12-------12----||-------|-
A-|-------12-------12-------------13-------13-------||-------|-
E-|----12-------12-------12----13-------13-------13-||--10---|-

T = Tapping
Composição: Andre Matos / Rafael BittencourtColaboração e revisão:
  • Wellington Barreto

0 comentários

    mostrar mais comentários

    Conseguiu tocar?

    0tocaram0ainda não

    Grave um vídeo tocando Evil Warning e mande pra gente!

    00:00 / 00:00
    outros vídeos desta música
    repetirqualidadeautomática
    Outro vídeos desta música
      00:00 / 00:00
      automática
      OK