Cifra Club

In Excelsis

Angra

Cifra: Principal
exibições 15.692
Tom: G#
Essa música foi feita p/ instrumentos como violino ou viola, mas 
essa é uma adaptação bem fiél à música.


E---------------------------------------------------
B---------------------------------------------------
G----------------------------------------------15-14
D----------------------------------14-13-18-18------
A-5-5-5-8-7-8-12-12-13-10-15-16-18------------------
E---------------------------------------------------

E--------------------------
B--------------------------
G-12-9-10-7-7-7-7-7-7-7-7-7
D--------------------------
A--------------------------
E--------------------------
Acordes para:
    Composição: Kiko Loureiro

    0 comentários

      mostrar mais comentários

      Conseguiu tocar?

      1tocaram0ainda não

      Grave um vídeo tocando In Excelsis e mande pra gente!

      00:00 / 00:00
      outros vídeos desta música
      repetirqualidadeautomática
      Outro vídeos desta música
        00:00 / 00:00
        automática
        OK