Cifra Club

Judgement Day

Angra

Cifra: Principal
exibições 23.808
Tom: C
intro:
2|-----------------------------------------------------------------------------3-------
3|-----------------------------------------------------------------------------2-------
4|--------------------------------------------------------------------------5--2-------
5|-2-2-2--------------------------------------------------------------------5--0-------
6|-0-0-0--(0--5-4-3-0)-0-1p0-1p0-1p0--(0-5-4-3-0)-0-1p0-1p0-1p0-(0-5-4-3-0)-3----------

---------------------------------------------------------------------------------------
---------------------------------------------------------------------------------------
-------------------------------------------------------------------------7--5----------
-2-2-2-------------------------------------------------------------------7--5----------
-0-0-0--(0-5-4-3-0)-0-1p0-1p0-1p0--(0-5-4-3-0)-0-1p0-1p0-1p0-(0-5-4-3-0)-5--3----------

(agora entra o teclado,repetindo isso mais 2 vezes,só q antes do solo tem uma virada que a
última nota já emenda no solo):
1|-------------------------------------------------------------------------------------
2|-------------------------------------------------------------------------------------
3|-9---9---6--7---7-----9~~~~----9-11-12b(14)-9~~12b(14)-9~~-9/10-9-12-12/14-12-10-9~~~
4|--7-7---4----5-5---7--------7/9------------------------------------------------------
5|---5---2------3---5------------------------------------------------------------------

-------------------------9-------12----------19-17-15----------------------------------
-----------------12~~---12b(14)-14b(15)--------------19-17-15------19-17-15------------
-~~-9--11-12b(14)-----------------------//16------------------18-16--------18-16-14----
-7/9-----------------------------------------------------------------------------------
---------------------------------------------------------------------------------------

----------------------------------------------------------
----------------------------------------------------------
--------18-16-14------------------------------------------
-17-16-----------17-16-14---------------------------------
--------------------------17-16-14~~~~~~~~(quase uma H.A)-

    Bm        A           E
Inside the cage of your mind
    F#           Bm
Waiting for the day
  A                  E
Just a victim of the guilt
    G
Living in despair
  Bm         A           E 
Out on your own in the dark 
  F#               Bm
Sinners meet the saints
   A              E
Bloody river overflows
       G
You don't really care

D          C
Setting on fire
G
Your own freedom
                   F    
Played the hardest game
Bm      C
Now you will burn
G                 A
Your eternal flame

3|-------------------------------------------------------------------------------------
4|-------------------------------------------------------------------------------------
5|-2-2-2----------------------------------------------------------(5-3-4-7-5-5-7-5-5-7-
6|-0-0-0-(0-5-4-3-0)-1p0-1p0-1p0-(0-5-4-3-0)-1p0-1p0-1p0-(0-5-4-3-0---------7-----7----

------------------------
------------------------
------------------------
---5-7-5---7p5-7p5)-----
-7------7---------)-7~~-
Bm       A            E 
Even the brave won't deny
F#          Bm
Evil warns again
        A                 E
And your conscience ins't safe
        G
Driving you insane

D            C
Playing with fire
         G
Put your freedom
            F
Through the hardest test
Bm    C          G
Don't blame the scare
              A
On your final day

D               Bb             C    A A7
One last minute passes by your soul
Dm              Bb                 C   G
Just one minute more in the horizon
Bb       F                  C
You will face the judgement day
             A7
(Scream your voice free to the air)
Bb              F         A   A7
Waiting for the judgement day

D               Bb             C   A  A7
One last minute passes by your soul
Dm              Bb              C   G
Just one minute more in the horizon
D               Bb             C   A   A7
One more minute passes by your eyes
Dm              Bb           C   G
Just one minute less in tre horizon

Bb       F                  C
Then you face the judgement day
             A7
(Scream your voice free to the air)
Bb          F            C
There is no more time to pray
          A7
(Sweat in pain you are afraid)
Bb     F                  A
We all face the judgement day
Dm


LEGENDAS:
( 17-19):  palm muting
Acordes para:

    0 comentários

      mostrar mais comentários

      Conseguiu tocar?

      0tocaram0ainda não

      Grave um vídeo tocando Judgement Day e mande pra gente!

      00:00 / 00:00
      outros vídeos desta música
      repetirqualidadeautomática
      Outro vídeos desta música
        00:00 / 00:00
        automática
        OK