Cifra Club

Late Redemption

Angra

Cifra: Principal
exibições 70.061
Tom: C
E|----------------------0-----------0-----------------
B|0-0---0-1----1-3----3---3-1----3---3-3-----0-3-1-0--
G|----2-----2------2-------1----2-2---2-----1---------
D|-----2-----2------3----------3-----------2----------
A|--0-------------------------------------2-----------
E|--------3------1------0----------------0------------

E|----------------------0-----------/5-3---0----------
B|0-0---0-1----1-3----3---3-1----3-------6-6----------
G|----2-----2------2-------1----2-2--------4----------
D|-----2-----2------3----------0-----------6----------
A|--0--------------------------------------5----------
E|--------3------1------0-----------------------------

Am9                  E/G#
You wasted all your chances
   Em/G                  D9/F#
To find yourself lost and lonely
Dm/F
Were so foolish
  C6
You were selfish
                 Gm/Bb
Much too blind to realize
                        Am    Bm11/A  Am Bm11/A
You messed up your own life...
( mesma sequencia )
Eu vou contando os dias
E já, já não tenho medo
Eu lhe peço
Eu imploro
Quando a minha hora chegar
Meu descanso minha paz

Fmaj7(#11)
Cante uma canção desconhecida
Bbmaj7(#11)
Posioning with hope
the hearts around you
Am7(11)
Plante mais lembranças na sua vida
G
Death is calling you (Now or never!)
Fmaj7(#11)
Nada além do amor é o que parece
Bmaj7(#11)
Please the ones you love
before you miss'em
 Am7(11)
Toda a minha dor na minha prece.
   Ab
Win my chances back cause
F              G              Cm
Life is short but it's never late!

Cm             
Tempo que passou
It's time to find Redemption
Ab     Gm5+     Fm7
Não vai mais voltar
Only love defies the Resurection
Am             Dm7         
Tudo que se foi
Mark my words: God's abandoned this
Am
world!

Solo de violão:

E|-------------------------------1---------0---------------------------1-------4----------
B|---5-5-5-6-6-3---5-5-5-------3---------0------5-5-5-6-6-9---10-9-10----3-------3---3----
G|---5-4-5-4-4-4---5-4-5-----2---------1--------5-4-5-4-4-9---9--9-9-------2-------4------
D|-------------------------3---------2---------------------------------------1--------------
A|-0-------------0----------------------------0-------------0----------------------------
E|--------------------------------------------------------------------------------------

Am
Would I live again?
           F   E         Am
What's the new religion? Yeah!
         Cm
And what shall be the bread?
Ab                    Am
Really I don't give a damn!
F                C
never wanna live again
G                 F
In this vain emotion
Bm6/G#
Over for me!

Fmaj7(#11)
Sing a lullaby now I remember
Bmaj7(#11)
Tempo que se foi e não se esquece mais
Am7(11)
Memories are twisting in my mind
Ab
Win my chances back
F             G                    Cm
Cause life is short but it's never late

Cm            
Tempo que passou
             It's time to find Redemption
Ab6     Gm5+     Fm7
Não vai mais voltar
     Only love defies the Resurection
Am             Dm7         
Tudo que se foi
Mark my words: God's abandoned this
Cm
world!
Cm             
  Toda a minha dor
            My destiny is over
Ab6    Gm5+      Fm7
Nunca vai voltar
And this hope above your comprehension
Cm                      Dm7  G7M
Tempo que se foi
Is the love you've been dreaming so long
Ab6    Gm5+
Nunca
   Fm7          Cm7(9)
...tudo se acabou.
   (Over for me)
Acordes para:
    Composição: Bittencourt / Kiko LoureiroColaboração e revisão:

    0 comentários

      mostrar mais comentários

      Conseguiu tocar?

      1tocaram4ainda não

      Grave um vídeo tocando Late Redemption e mande pra gente!

      00:00 / 00:00
      outros vídeos desta música
      repetirqualidadeautomática
      Outro vídeos desta música
        00:00 / 00:00
        automática
        OK