Cifra Club

Aprenda

Live and Learn

Angra

Cifra: Principal (violão e guitarra)
Tom: E
Trilha 1
                                                                               
E||---------------------------------------|-----------------------------------|
B||---------------------------------------|-----------------------------------|
G||*--------------------------------------|-----------------------------------|
D||*--------------------------------------|-----------------------------------|
A||-------14-----10-----12-----9-----9h10-|------10-----7-----9-----5-----3p0-|
E||---0-0----0-0----0-0----0-0---0-0------|--0-0----0-0---0-0---0-0---0-0-----|


                                    
-----------------------------------|
-----------------------------------|
-----------------------------------|
------9-----7-----10-----9-----7h9-|
--5-5---5-5---5-5----5-5---5-5-----|
-----------------------------------|


                                                                                
-------------------------------------------||----------------------------------|
-------------------------------------------||----------------------------------|
------4-----------4-----------5-----------*||------4-----------7-5-4---5-4-----|
------------7-------7-5-4-5-7---9-7-5-7-9-*||------------7-----------7-----7-5-|
--3-3---3-3---3-3--------------------------||--3-3---3-3---3-3-----------------|
-------------------------------------------||----------------------------------|


                                      
------------------|------------------|
------------------|------------------|
------------------|------------------|
------------------|------------------|
------------------|------------------|
------------------|------------------|


                                                   
--14h17----14-------------------------------------|
--------------------------------------------------|
--------18----14h18----14-11h14----11-------------|
--------------------16----------------------------|
--------------------------------16----12h16----12-|
--------------------------------------------14----|


                                                   
--------------------------------------------------|
--------------------------------------------------|
--------------------------------------16-19----16-|
-----------------------15-18----15-18-------18----|
--------14-17----14-17-------16-------------------|
--13-16-------16----------------------------------|


                                                   
--14h17----14-------------------------------------|
--------------------------------------------------|
--------18----14h18----14-11h14----11-------------|
--------------------16----------------------------|
--------------------------------16----12h16----12-|
--------------------------------------------14----|


                                                   
--------------13-14-15-16-19p16-------------------|
-----------14-------------------18----------------|
--------13-------------------------18-16----------|
-----15----------------------------------18-------|
--16----------------------------------------20-16-|
--------------------------------------------------|


                                                   
--------------14h15h16h17-22p17p14----------------|
-----------15----------------------15-------------|
--------14----------------------------14----------|
-----16----------------------------------16-------|
--17----------------------------------------17----|
-----------------------------------------------17-|


                                                   
--------------------------------------------------|
-----------------10h14-17p14p10-------------------|
--------------------------------------------------|
--14p11----11h14----------------14p11----------11-|
--------12----------------------------14p12h14----|
--------------------------------------------------|


                                                         
--------------------------16-19p16----------------------|
--------------------------------------------------------|
--16p13----------13h16-21t---------21p16-21p16p13-------|
--------16p14h16----------------------------------16p14-|
--------------------------------------------------------|
--------------------------------------------------------|


                                                         
--------------------------------------------------------|
--------------------------------------------------------|
--4-----------6-----------7-------------9---------------|
----7-6-4-6-7---9-7-6-7-9---11-9-7-9-11---12-11-9-11-12-|
--------------------------------------------------------|
--------------------------------------------------------|


                                                                     
--------------------------------------------------------14-16-14----|
-----------------------------------------------14-15-17----------17-|
--11----------------13----------------13-14-16----------------------|
-----14-12-11-12-14----16-14-12-14-16-------------------------------|
--------------------------------------------------------------------|
--------------------------------------------------------------------|


                                                                        
--------19-17-16-------21-19-17----------------------------------------|
--15-14----------19-18----------21-19-17-------------------------------|
-----------------------------------------19-18-16----------------------|
--------------------------------------------------19-18-16-------------|
-----------------------------------------------------------19-17-16----|
--------------------------------------------------------------------19-|


                             
--14b--14b--14b-14b-----14r-|
----------------------------|
----------------------------|
----------------------------|
----------------------------|
----------------------------|


                                                         
--16h19p16-------16-19p16-21p16-19p16----16-16----------|
--------------17----------------------19-------19-17-16-|
-----------18-------------------------------------------|
--------------------------------------------------------|
--------------------------------------------------------|
--------------------------------------------------------|


                             
----------------------------|
----------------------------|
--13/---13--------13--------|
------------13h14-----------|
----------------------------|
----------------------------|


                                                                        
--16-17----------------------------------------------------------------|
--------19p17p16----13h14h16p14p12-------------------------------------|
-----------------18----------------14-13-11-------------------11-------|
--------------------------------------------14-13-11-11-13-14----14-13-|
-----------------------------------------------------------------------|
-----------------------------------------------------------------------|


                                                   
--------------------------|-----------------------|
--------------------------|-----------------------|
--------------------11b---|--11------9--9----8----|
----------11h-11----------|-----------------------|
--14----------------------|-----------------------|
--------------------------|-----------------------|


                                             
--16p11----------11-16p11-11p7-------7-11p7-|
--------12----12---------------9---9--------|
-----------13--------------------8----------|
--------------------------------------------|
--------------------------------------------|
--------------------------------------------|


                                                                    
--14p9----------9-14p9-12-11-9----11-9-------|---------------------|
-------11----11----------------12------12-11-|--9--12--------------|
----------11---------------------------------|---------------------|
---------------------------------------------|---------------------|
---------------------------------------------|---------------------|
---------------------------------------------|---------------------|


                                                                           
------------------------|--------------------------|----------------------|
--17b-------17----16----|--14--------16b-----16-14-|----------------------|
------------------------|--------------------------|--13--16--------------|
------------------------|--------------------------|----------------------|
------------------------|--------------------------|----------------------|
------------------------|--------------------------|----------------------|


                                               
------------------------|--------------------||
--17b-------17----16----|--17----------------||
------------------------|--------------------||
------------------------|--------------------||
------------------------|--------------------||
------------------------|--------------------||




Letra
=====

Composição: Kiko Loureiro


Remember the first time you've faced the dark
Why were you so afraid?
Hiding so many secrets inside
When fearshave got to be tamed

I promise I'll still be there
To keep my promise
I'll still be there

To watch over dreams at night
And follow you through the day
You shot the doors but I'm right behind
Where shadows remain

I promise I'll still be there
To say i promise
I'll still be there

Don't ask me why we'll be like brothers
Skating on the ice of mortall loneliness

Live and learn with your mind
Find a way out of madness
You dream on (of) paradise
Who's gonna take you there?
Composição de Kiko Loureiro / Rafael Bittencourt
14.710 exibições
    • ½ Tom
    • A
    • Bb
    • B
    • C
    • Db
    • D
    • Eb
    • E
    • F
    • F#
    • G
    • Ab
  • Adicionar à lista

    0 comentários

    Mostrar mais comentários

    Conseguiu tocar?

    2 Tocaram 0 Ainda não

    Grave um vídeo tocando Live and Learn e mande pra gente!

    00:00 / 00:00
    outros vídeos desta música
    repetir qualidade Automático
    Outros vídeos desta música
    00:00 / 00:00
    Automático

    Cifra Club Pro

    Aproveite o Cifra Club com benefícios exclusivos e sem anúncios
    Cifra Club Pro
    Aproveite o Cifra Club com benefícios exclusivos e sem anúncios
    OK