Cifra Club

Aprenda

Millennium Sun

Angra

Cifra: Principal (violão e guitarra)
Tom: D
(Piano) - Adaptado para tablatura, cifras:

E||---1--|---1--|---0--|-3-----0-|--1---|--0---|------|--0---|------|------|------|---|
B||---0--|---1--|---1--|-1-----1-|--3---|--3---|------|--1---|--0---|------|------|---|
G||---2--|---2--|---2--|-2--2--2-|--2---|--1---|--2---|--2---|------|------|------|---|
D||---0--|---0--|---0--|---------|------|--2---|--0---|--3---|--0---|------|------|---|
A||------|------|------|---------|--2---|------|------|------|--2---|------|------|---|
E||------|------|------|---------|------|------|--2---|------|------|------|------|---|
     Dm6    F/D   Am/D  (C/A Am*)  Dm/B    E7*   D/F#   Am/F   Bm*
                                
Dm6       F/D       Am     (C/A  Am*)
An eagle breaks the silence
Dm6       F/D Am/D    Am  (C/A  Am*)
And overflies the field
Dm/B          E7*   Am    G   
My eyes will try to follow
D/F      Am/F  Bm     C 
Till it vanishes away

Dm6          F/D         Am  (C/A  Am*)
Like candles in the darkness
Dm6       F/D  Am/D   Am  (C/A  Am*)
We fight against the wind
Dm/B     E7    Am    G 
Devotion to your idols
D/F#      Am/F  Bm*    C 
Soon will overthrow the king

(solo violino) - Adaptado para tablatura
----------------------|---------------------------|--------------------------|
----------------------|---------------------------|--------------------------|
--5----6----3------3--|--5----6----8----------6-5-|--5----6----3--------5----|
----------------------|---------------------------|--------------------------|
----------------------|---------------------------|--------------------------|
----------------------|---------------------------|--------------------------|
                                                                                  
-------------------------|-------------------------|-----------------------------|
-------------------------|-------------------------|-----------------------------|
--3-2-2-------10----8----|--8--6-5-6--3--15--------|--5h6h5h6h5-5--3--8------6-5-|
-----------3-------------|-------------------------|-----------------------------|
-------------------------|-------------------------|-----------------------------|
-------------------------|-------------------------|-----------------------------|
                                                                               
---------------------------|-------------------------|------------------------|
---------------------------|-------------------------|------------------------|
--5----15--------3------5--|--3h2-----2-3-5------3-5-|--6------5-6-8------6-8-|
---------------------------|-------------------------|------------------------|
---------------------------|-------------------------|------------------------|
---------------------------|-------------------------|------------------------|

(pre intro)
|----2----------------------------------------------|
|----5---------------------------------------17-----|
|----4-----------------------------------16---------|
|----2-------------------------------14-------------|
|----2----------------------------------------------|
|----0----------------------------------------------|

(intro guita)
|---------------------------------------|
|--------10-----------8----10-----------|
|*-------9------------9----9------------|
|*-------7------------7----7------------|
|---0--------0--0--0-----------0--0--0--|
|---------------------------------------|
                                                                             
------------------------------------|---------------------------------------|
--10----7-----------7---------------|-------12-----------12----10-----------|
--8-----8-----------8---------------|-------10-----------10----10-----------|
--7-----7-----------9---------------|-------9------------10----10-----------|
-----------0--0--0---------0--0--0--|--0--------0--0--0------------0--0--0--|
------------------------------------|---------------------------------------|

                      1             2                                     
--------------------------------||-----|
--13----12-----------10---------||--10-|
--12----12-----------11--------*||--9--|
--14----12-----------12--------*||--11-|
------------0--0--0-------------||-----|
--------------------------------||-----|

C#m
Out of order
Taming borders
F#
Tearing down the fences
B
On and on and after all
C#m
The century has gone
Racisme jumble
Turbulence
F#                                      A
My eyes believe we have gone to the end
              E/G#          G   
(ORDINARY EARTH)  ORDINARY EARTH
D/F#                    A
SAILING THROUGH THE SPACE
C#m
Population Alienation
F#
Losing all affection
B
Calling on to heaven's hope
    C#m  
To watch for my protection
Out of luck
Potential struck
   F#
Remote controlled
         A
By T.V. Again
                   E/G#                   G
(Carries human souls) Carries human souls
G               D/F#          Bm7  Bm
Lead us to the journey of our fate

E                 B/D#
SO COME MILLENIUM SUN
         C         
Won't you show us the way
B           A
Future's begun
G                       B
So words from my mouth come
  D/C                    Bm             
|----------------------|----------------------------|
|----------------------|----------------------------|
|-----7---------9---7--|------7---------9----7------|
|-----7---------7---7--|------7---------7----7------|
|----------------------|----------------------------|
|--8-----8-8-8---------|---7-----7-7-7--------------|
 Whispering             for           your

 Em
|--------------------------------------------------------|
|--------------------------------------------------------|
|--------------------------------------------------------|
|-------2-4-5-4-2-7-5-4----------2-4-5-4-2-7-5-4---------| Rafael
|--------------------------------------------------------|
|-0-0---0-2-3-2-0-5-3-2----0-0---0-2-3-2-0-5-3-2---------| Kiko Loureiro
return


Solo1 Kiko Loureiro: (C#m A B E F#m G#m A B)4x
Solo2 Rafael         (C Bm7(b5) Dm Am C Bm7(b5) Bb Am C)

Solo 1 Kiko Loureiro
e|----------------------|------------------------------|--------------------------|
B|-16h17p16-------------|------------------------------|--16h17p16----------19----|
G|-----------18-----16~-|------------------------------|------------18------------|
D|--------------18------|--18/19\18--16\14--16/18--18--|---------------18---------|
A|----------------------|------------------------------|--------------------------|
E|----------------------|------------------------------|--------------------------|

e|-----------------|--19--21--16---|--------9---------|--9--12b-|
B|-21b-21---19\17--|---------------|--12b------9--12b-|---------|
G|-----------------|---------------|------------------|---------|
D|-----------------|---------------|------------------|---------|
A|-----------------|---------------|------------------|---------|
E|-----------------|---------------|------------------|---------|

E||-11h12h11h9--------------------|----------------|---------------9---------|-9--12b-|
B||-------------12----------------|----------------|------------------9--12b-|---9----|
G||-----------------11--9\8--9--8-|-------------6--|-11b-11-9-11b------------|--------|
D||-------------------------------|-9--------------|-------------------------|--------|
A||-------------------------------|---9-7-6-7-9----|-------------------------|--------|
E||-------------------------------|----------------|-------------------------|--------|

E||-14b--14p12---------12p11---------11---------------------------|
B||---------------------------------------------------------------|
G||-------------13p11---------13p11------13p11\9--11p9------------| Fim do solo 1
D||-----------------------------------------------------11--------|
A||---------------------------------------------------------------|
E||---------------------------------------------------------------|

Solo2 Rafael

E||-12---13h12h10--12-|----------17-----------------------17-|-19--20h19h17-------|
B||-------------------|-17p15h17----15h17-15/17-20-17-20-----|---------------20b--|
G||-9-----------------|--------------------------------------|--------------------|
D||-------------------|--------------------------------------|--------------------|
A||-------------------|--------------------------------------|--------------------|
E||-------------------|--------------------------------------|--------------------|

E||----------------------------------------|
B||-20b-20-17----17---------------------17-|
G||-----------20----20h19h17-----16h17-----|
D||---------------------------19-----------|
A||----------------------------------------|
E||----------------------------------------|
    T                 T     T 
E||-22h17h20h17h15h17h22h20h22h20h17h15--T----------------T-----T-----------|
B||-------------------------------------22h17h20h17h15h17h22h20h22h20h17h15-|
G||-------------------------------------------------------------------------|
D||-------------------------------------------------------------------------|
A||-------------------------------------------------------------------------|
E||-------------------------------------------------------------------------|

E||---------------------------------------|
B||-T-----------------T----T--------------|
G||-22h17h19h17h14h17h2219h22h19h17h14\9--|
D||---------------------------------------|
A||---------------------------------------|
E||---------------------------------------|

D           G     E/Ab   A
Pictures a sunset on the lake
D            G     E/Ab       Fm
Mirrors of crystal your portrait
          Dm                B
Walking on this field while I wait

E                 B/D#
SO COME MILLENIUM SUN
         C         
Won't you show us the way
B           A
Future's begun
G                       B
So words from my mouth come
C             B7           E
Whispering for your return 
C             B7           E
Show us the future's began
C             D            
Burning in millenium                           SUN!!!
E||------------------------------------|------------------------|
B||------------------------------------|------17-15-17----------|
G||-----12-11-12--9--14-12-14--11------|------------------------|
D||--9-----------------------------12--|------------------------|
A||------------------------------------|------------------------|
E||------------------------------------|------------------------|
Composição de Kiko Loureiro / Rafael Bittencourt
Colaboração e revisão:
  • Renato Mestre
42.369 exibições
    • ½ Tom
    • A
    • Bb
    • B
    • C
    • Db
    • D
    • Eb
    • E
    • F
    • F#
    • G
    • Ab
  • Adicionar à lista

    0 comentários

    Mostrar mais comentários

    Conseguiu tocar?

    0 Tocaram 0 Ainda não

    Grave um vídeo tocando Millennium Sun e mande pra gente!

    00:00 / 00:00
    outros vídeos desta música
    repetir qualidade Automático
    Outros vídeos desta música
    00:00 / 00:00
    Automático

    Cifra Club Pro

    Aproveite o Cifra Club com benefícios exclusivos e sem anúncios
    Cifra Club Pro
    Aproveite o Cifra Club com benefícios exclusivos e sem anúncios
    OK