Cifra Club

Nova Era

Angra

Cifra: Principal (violão e guitarra)
tom: C
E|---------------------------------------------------------------------------|
B|---3--------------------------------------3--------------------------------|
G|---2--------------------------------------2--------------------------------|
D|---0---------------------3------2---------0--------------------------------|
A|---------8--7--5--3------1------0-----------------5--7-----8-------10------|
E|---------6--5--3--1-------------------------------3--5-----6--------9------|

E|---------------------------------------------------------------------------|
B|---3------------------------------3----------------------------------------|
G|---2------------------------------2----------------------------------------|
D|---0---------------------3------2-0----------------------------------------|
A|---------8--7--5--3------1------0-----2--3--7--5--7-----8-----7-----4---7--|
E|---------6--5--3--1-------------------0--1--5--3--5-----6-----5------------|

E|-----------------------------------------8-----------------------8-----8---|
B|-10------10-8-10-11-8-10------10-8-10-11---10-----10-8-10-11-8-10-11-10-11-|
G|----7-10------------------7-10----------------7-10-------------------------|
D|---------------------------------------------------------------------------|
A|---------------------------------------------------------------------------|
E|---------------------------------------------------------------------------|

E|---------------------------------------------------------------------------|
B|-----------------8--------------------8-10----------------8-----8-10--8-10-|
G|-10---7-10--9-10---9--10---7-10--9-10------10---7-10--9-10--9-10----10-----|
D|----7--------------------7--------------------7----------------------------|
A|---------------------------------------------------------------------------|
E|---------------------------------------------------------------------------|

E|--10--10-8---10--10------------------10-10-8--10--10-----------------------|
B|----------11----------------10-11-13----------11----------------------11-13|
G|--------------------9-10-12-----------------------------------10-12-14-----|
D|-----------------------------------------------------10-12-14--------------|
A|---------------------------------------------------------------------------|
E|---------------------------------------------------------------------------|

E|---------------------------------------------------------------------------|
B|-11--11-10----11-10-------------------11-11-10-8-11-10---------------8-10--|
G|-----------12----------------10-12-14-------------------------7-9-10-------|
D|--------------------10-12-14---------------------------7-8-10--------------|
A|---------------------------------------------------------------------------|
E|---------------------------------------------------------------------------|

E|--10---10--8-----10----10---------------------------------15---15-13-15----|
B|-------------11-------------------8----10--11--8--10-------15---15----14---|
G|---------------------------7--10-------------------------------------------|
D|---------------------------------------------------------------------------|
A|---------------------------------------------------------------------------|
E|---------------------------------------------------------------------------|

E|---------------------------------------------------------------------------|
B|--11---11--10----11----10--------------------------------------------------|
G|--------------12-------------------9---10--10--10-9-10-----12---12--10--9--|
D|-------------------------------12------------------------------------------|
A|---------------------------12----------------------------------------------|
E|---------------------------------------------------------------------------|

E|---------------------------------------------------------------------------|
B|---------------------------------------------------------------------------|
G|---------------------------------------------------------------------------|
D|-7----------7-7---------7---7----------7-----7-----------------------------|
A|--5--5-5-5-5-5-5-5-5-5-5-5---4--4-4-4-4-4-4-4-4----------------------------|
E|---------------------------------------------------------------------------|

E|---------------------------------------------------------------------------|
B|---------------------------------------------------------------------------|
G|---------------------------------------------------------------------------|
D|-7------------7-7---------7---5----------5-5-5-5-5-------------------------|
A|-5--5-5-5-5-5-5-5-5-5-5-5---3--3-3-3-3-3-3-3-3-3---------------------------|
E|---------------------------------------------------------------------------|

E|---------------------------------------------------------------------------|
B|---------------------------------------------------------------------------|
G|---------------------------------------------------------------------------|
D|-7------------7-7---------7---5----------5-----5-----5---------------------|
A|-5--5-5-5-5-5-5-5-5-5-5-5---3--3-3-3-3-3-3-3-3-3-3-3-----------------------|
E|---------------------------------------------------------------------------|

E|---------------------------------------------------------------------------|
B|---------------------------------------------------------------------------|
G|-----7-7-5-5-7-7-----7-7-5-5-7-------7-7-5-5-7-7-----7-7-5-5-7-7-----------|
D|-5-5-------------5-5-------------3-3-------------3-3-----------------------|
A|---------------------------------------------------------------------------|
E|---------------------------------------------------------------------------|

E|---------------------------------------------------------------------------|
B|---------------------------------------------------------------------------|
G|---------------------------------------------------------------------------|
D|-5-5-8-8-7-7-8-8-5-5-8-8-7-7-8-8----7-7-5-5-7-7-----7-7-5-5-7-7------------|
A|---------------------------------5-5-------------5-5-----------------------|
E|---------------------------------------------------------------------------|

E|---------------------------------------------------------------------------|
B|---------------------------------------------------------------------------|
G|-----7-7-5-5-7-7-----7-7-5-5-7-7-------7-7-5-5-7-7-----7-7-5-5-7-7---------|
D|-5-5-------------5-5-------------------------------------------------------|
A|-----------------------------------8-8-------------8-8---------------------|
E|---------------------------------------------------------------------------|

E|---------------------------------------------------------------------------|
B|---------------------------------------------------------------------------|
G|---------------------------------------------------------------------------|
D|-5-5-8-8-7-7-8-8-5-5-8-8-7-7-8-8-------7-7-5-5-7-7-----7-7-5-5-7-7---------|
A|-----------------------------------5-5-------------5-5---------------------|
E|---------------------------------------------------------------------------|

E|---------------------------------------------------------------------------|
B|---------------------------------------------------------------------------|
G|-----7-7-5-5-7-7-----7-7-5-5-7-7-------7-7-5-5-7-7-----7-7-5-5-7-7---------|
D|-5-5-------------5-5---------------3-3-------------3-3---------------------|
A|---------------------------------------------------------------------------|
E|---------------------------------------------------------------------------|

E|---------------------------------------------------------------------------|
B|---------------------------------------------------------------------------|
G|---------------------------------------------------------------------------|
D|-5-5-8-8-7-7-8-8-5-5-8-8-7-7-8-8-------7-7-5-5-7-7-----7-7-5-5-7-7---------|
A|-----------------------------------5-5-------------5-5---------------------|
E|---------------------------------------------------------------------------|

E|---------------------------------------------------------------------------|
B|---------------------------------------------------------------------------|
G|------------7-----9--------------------------------------------------------|
D|-3----------7-----7-------10-----------10-------------3-----------5------7-|
A|-1-------------------------8------------7-------------1-----------3------5-|
E|---------------------------------------------------------------------------|

E|---------------------------------------------------------------------------|
B|---------------------------------------------------------------------------|
G|---------------------------------------------------------------------------|
D|-3--------5----------------------------5---5-5-5-5-------------------------|
A|-1--------3----------------3-----------3-----------8-8-8-8-7-7-7-7-5-5-5-5-|
E|---------------------------1-----------------------------------------------|

E|---------------------------------------------------------------------------|
B|---------------------------------------------------------------------------|
G|---------------------------------------------------------------------------|
D|----10-----------10-------------3-------------5-------7--------------------|
A|-----8------------7-------------1-------------3-------5--------------------|
E|---------------------------------------------------------------------------|

E|---------------------------------------------------------------------------|
B|---------------------------------------------------------------------------|
G|---------------------------------------------------------------------------|
D|----3------5--------------------8-------8-------------8--------------------|
A|----1------3-----3--------------6-------6-------------6--------------------|
E|-----------------1---------------------------------------------------------|

E|------------------------------------------------------------------8-------8|
B|-10--------10---8--10--11-------10---------10---8--10--11-8-10-11---10-11--|
G|-----7-10------------------12-------7--10----------------------------------|
D|---------------------------------------------------------------------------|
A|---------------------------------------------------------------------------|
E|---------------------------------------------------------------------------|

E|---------------------------------------------------------------------------|
B|-----------------------8-----------------------5---6---8------8-10----8-10-|
G|-10----7--10---9--10-------9---10------7--10-------------9-10------10------|
D|-----7-------------------------------7-------------------------------------|
A|---------------------------------------------------------------------------|
E|---------------------------------------------------------------------------|

E|-10--10----------10---10----------------------10---------------------------|
B|---------13--11--------------------10-11-13-----------17--17--15--20-------|
G|---------------------------9-10-12-----------------------------------------|
D|---------------------------------------------------------------------------|
A|---------------------------------------------------------------------------|
E|---------------------------------------------------------------------------|

E|---------------------------------------------------------------------------|
B|-11--11--10--8---11---10----------------------11---------------------------|
G|-----------------------------------10-12-14-----------13--13--10--17-------|
D|--------------------------10-12-14-----------------------------------------|
A|---------------------------------------------------------------------------|
E|---------------------------------------------------------------------------|

E|---------------------------------------------------------------------------|
B|---------------------------------------------------------------------------|
G|---------------------------------------------------------------------------|
D|--8-----------8---------8-------8---------8---------8----------------------|
A|--6-6-6-6-6-6-6-6-6-6-6-6-6---6-6-6-6-6-6-6-6-6-6-6-6-6--------------------|
E|---------------------------------------------------------------------------|

E|---------------------------------------------------------------------------|
B|---------------------------------------------------------------------------|
G|---------------------------------------------------------------------------|
D|-12-0-10-12-10-0-12-0-10-12-10-0-10-12-10-0--------------------------------|
A|---------------------------------------------------------------------------|
E|---------------------------------------------------------------------------|

E|---------------------------------------------------------------------------|
B|---------------------------------------------------------------------------|
G|---------------------------------------------------------------------------|
D|-12-0-8-12-8-0-12-0-8-12-8-0-8-12-8-0--------------------------------------|
A|---------------------------------------------------------------------------|
E|---------------------------------------------------------------------------|

E|---------------------------------------------------------------------------|
B|---------------------------------------------------------------------------|
G|---------------------------------------------------------------------------|
D|-12-0-7-12-7-0-12-0-7-12-7-0-7-12-7-0--12-0-4-12-4-0-12-0-4-12-4-0-4-12-4-0|
A|---------------------------------------------------------------------------|
E|---------------------------------------------------------------------------|

E|---------------------------------------------------------------------------|
B|---------------------------------------------------------------------------|
G|---------------------------------------------------------------------------|
D|-12-0-10-12-10-0-12-0-10-12-10-0-10-12-10-0--------------------------------|
A|---------------------------------------------------------------------------|
E|---------------------------------------------------------------------------|

E|---------------------------------------------------------------------------|
B|---------------------------------------------------------------------------|
G|---------------------------------------------------------------------------|
D|-12-0-8-12-8-0-12-0-8-12-8-0-8-12-8-0--------------------------------------|
A|---------------------------------------------------------------------------|
E|---------------------------------------------------------------------------|

E|---------------------------------------------------------------------------|
B|---------------------------------------------------------------------------|
G|---------------------------------------------------------------------------|
D|-12-0-7-12-7-0-12-0-7-12-7-0-7-12-7-0--12-0-4-12-4-0-12-0-4-12-4-0-4-12-4-0|
A|---------------------------------------------------------------------------|
E|---------------------------------------------------------------------------|

E|---------------------------------------------------------------------------|
B|---------------------------------------------------------------------------|
G|---------------------------------------------------------------------------|
D|-8-0-5-8-5-0-8-0-5-8-5-0-5-8-5-0---7-0-4-7-4-0-7-0-4-7-4-0-4-7-4-0---------|
A|---------------------------------------------------------------------------|
E|---------------------------------------------------------------------------|

E|---------------------------------------------------------------------------|
B|---------------------------------------------------------------------------|
G|---------------------------------------------------------------------------|
D|-10-0-7-10-7-0-10-0-7-10-7-0-7-10-7-0---8-0-5-8-5-0-8-0-5-8-5-0-5-8-5-0----|
A|---------------------------------------------------------------------------|
E|---------------------------------------------------------------------------|

E|---------------------------------------------------------------------------|
B|---------------------------------------------------------------------------|
G|---------------------------------------------------------------------------|
D|-11-0-8-11-8-0-11-0-8-11-8-0-8-11-8-0-12-0-7-12-7-0-12-0-7-12-7-0-7-12-7-0-|
A|---------------------------------------------------------------------------|
E|---------------------------------------------------------------------------|

E|---------------------------------------------------------------------------|
B|---------------------------------------------------------------------------|
G|---------------------------------------------------------------------------|
D|-13-0-10-13-10-0-13-10-0-16-0-13-16-13-0-----------------------------------|
A|---------------------------------------------------------------------------|
E|---------------------------------------------------------------------------|

E|---------------------------------------------------------------------------|
B|---------------------------------------------------------------------------|
G|---------------------------------------------------------------------------|
D|-16-13-0-19-0-16-19-16-0-19-16-0-22-0-19-----------------------------------|
A|---------------------------------------------------------------------------|
E|---------------------------------------------------------------------------|

E|----------------15--------15--17-----------17-18----------15---------------|
B|-------------------18--18-------18--20--20------------20-----15----15------|
G|---------------------------------------------------------------------------|
D|-22-19-0-22-19-0-----------------------------------------------------------|
A|---------------------------------------------------------------------------|
E|---------------------------------------------------------------------------|

E|-18-----------18-----------17--17------------------------------------------|
B|----------------------------------18---------------------------------------|
G|-------------------------------------17-15-14------14----------------------|
D|------------------------------------------------------15-------------------|
A|---------------------------------------------------------17-15-13-12-13-15-|
E|---------------------------------------------------------------------------|

E|-----------------------18-17-15--------------------------------------------|
B|-15------15--------------------18-17-15-----15-----------------------------|
G|-15------15----17-17-15----------------18-17--18-17-15-17-15------17--10-12|
D|----17-17---17----------------------------------------------17-15----------|
A|---------------------------------------------------------------------------|
E|---------------------------------------------------------------------------|

E|---------------------------------------------------------------------------|
B|-10-11-10--------11-14-11--------14-13-11----------------------------------|
G|---------12-10-12--------12-10-12--------12--------------------------------|
D|---------------------------------------------------------------------------|
A|---------------------------------------------------------------------------|
E|---------------------------------------------------------------------------|

E|---------------------------------------------------------------------------|
B|---------------------------------------------------------------------------|
G|---------------------------------------------------------------------------|
D|---------------------------------------------------------------------------|
A|-10-10-10-10-12-12-12-12-13-13-13-13---------------------------------------|
E|---------------------------------------------------------------------------|

E|---------------------------------------------------------------------------|
B|--------------------------------------------------13-13-13-13--------------|
G|--------------12-12-12-12-14-14-14-14-15-15-15-15--------------------------|
D|12-12-12-12----------------------------------------------------------------|
A|---------------------------------------------------------------------------|
E|---------------------------------------------------------------------------|

E|---------------------------------------------------------------------------|
B|-------------------------------------12-10-9------13-12-10-------15-12-----|
G|-10-9-7------13-10-9-------14-13------------10-9-7--------13-10-9-----13-10|
D|-------10-9-7-------12-10-9-----15-14--------------------------------------|
A|---------------------------------------------------------------------------|
E|---------------------------------------------------------------------------|

E|---------------------------------------------------12-13----12--------------|
B|----13-------13---12--12-------12---13--13-12-13---------15----13-15-12-13--|
G|-14-------14----------------13----------------------------------------------|
D|-------14----------------14-------------------------------------------------|
A|----------------------------------------------------------------------------|
E|----------------------------------------------------------------------------|

E|----------------------------------------------------------------------------|
B|--------------13---12---------12---13--13-12-13-18-17-----17----------------|
G|-14--------14--------------13------------------------20-19--20-19-17-19-17--|
D|--------14--------------14--------------------------------------------19-17-|
A|-----15--------------14-----------------------------------------------------|
E|----------------------------------------------------------------------------|

E|--------------------18-17-18-15-18-17-15-13-17-15-13-12-15-13-12-10-13-12-10|
B|---------------14-15--------------------------------------------------------|
G|-19-17------19--------------------------------------------------------------|
D|------19-17-----------------------------------------------------------------|
A|----------------------------------------------------------------------------|
E|----------------------------------------------------------------------------|

E|-9-12-10-9--10-9-----8------------------------------------------------------|
B|----------11----11-10-11-10--8-11-10-8--10-8----8---------------------------|
G|--------------------------------------10----10-9-10-9-7-10-9-7--------------|
D|----------------------------------------------------------------------------|
A|----------------------------------------------------------------------------|
E|----------------------------------------------------------------------------|

E|------------------------------------19-14--19-14--19-14-17-14--17-14--17-14-|
B|-8--8-6-6--13--13-10-15-17-17-15-18------16-----16-----------16-----16------|
G|----------------------------------------------------------------------------|
D|----------------------------------------------------------------------------|
A|----------------------------------------------------------------------------|
E|----------------------------------------------------------------------------|

E|----------------------------------------------------------------------------|
B|----------------------------------------------------------------------------|
G|--------------------------------------------------------------9-7---5-7--9--|
D|--------------------------------------4-5---------------------9-7---5-7--9--|
A|-----10---7---9-----5---7--------3-5-7--------10---7---9--------------------|
E|-0-0----0---0---0-----0---0-3-5-7----------0-0----0---0---0-----------------|

E|----------------------------------------------------------------------------|
B|-----------------------------8-7-5------------------------------------------|
G|----------------------------------7-5-4-------------------------9-7--5-7--9-|
D|---------------------------------------7-5----------------------9-7--5-7--9-|
A|-----10---7---9-----5---7------------------------10---7---9-----------------|
E|-0-0----0---0---0-----0---0------------------0-0----0---0---0---------------|

E|----------------------------------------------------------------------------|
B|----------------------------------------------------------------------------|
G|----------------------------------------------------------------------------|
D|--------------------------------------4-5-----------------------------------|
A|-----10---7---9-----5---7--------3-5-7-------10---7------------7---------7--|
E|-0-0----0---0---0-----0---0-3-5-7--------0-0----0----0-0-0-0-0---0-0-0-0----|

E|---------------------------------------------8-10-8-10-8--------------------|
B|----------8-10-8----------8-10-8--------------------------------------------|
G|-----------------------------------12-8--8-12-----------12-8--8-12-8--------|
D|12-8--8-12------12-8--8-12-------------10-------------------10--------------|
A|----10--------------10------------------------------------------------------|
E|----------------------------------------------------------------------------|

E|----------------------------------------6-8-6-8-6---------------------------|
B|---------6-8-6---------6-8-6------------------------------------------------|
G|-------------------------------10-7-7-10---------10-7-7-10-7----------------|
D|10-7-7-10-----10-7-7-10------------8-----------------8----------------------|
A|----8-------------8---------------------------------------------------------|
E|----------------------------------------------------------------------------|

E|-----------------------------------4-6-4-6-4--------------------------------|
B|-------4-8-4-6-4------------------------------------------------------------|
G|----------------------------8-5-5-8---------8-5-5-8-5-----------------------|
D|8-5-5-8---------8-5-5-8-5------6---------------6----------------------------|
A|---6---------------6--------------------------------------------------------|
E|----------------------------------------------------------------------------|

E|--------5-8-5-12-8-------------------------------------------10-------------|
B|------------------10---------------------------------10-12-13---------------|
G|-9-5-5-9------------9-------------------------9-11-12-----------------------|
D|----7----------------10----------------9-10-12------------------------------|
A|-----------------------12-11-10-9-10-12-------------------------------------|
E|----------------------------------------------------------------------------|

E|----------------------------------------------------------------------------|
B|----------------------------------------------------------------------------|
G|----7-7-5-5-7-7---7-7-5-5-7-7------7-7-5-5-7-7---7-7-5-5-7-7----------------|
D|-5-5-----------5-5--------------3-3-----------3-3---------------------------|
A|----------------------------------------------------------------------------|
E|----------------------------------------------------------------------------|

E|----------------------------------------------------------------------------|
B|----------------------------------------------------------------------------|
G|----7-7-5-5-7-7---7-7-5-5-7-7------7-7-5-5-7-7---7-7-5-5-7-7----------------|
D|-5-5-----------5-5--------------3-3-----------3-3---------------------------|
A|----------------------------------------------------------------------------|
E|----------------------------------------------------------------------------|

E|----------------------------------------------------------------------------|
B|----------------------------------------------------------------------------|
G|----7-7-5-5-7-7---7-7-5-5-7-7------7-7-5-5-7-7---7-7-5-5-7-7-----7-----9----|
D|-5-5-----------5-5--------------3-3-----------3-3------------3---7-----7----|
A|-------------------------------------------------------------1--------------|
E|----------------------------------------------------------------------------|

E|----------------------------------------------------------------------------|
B|----------------------------------------------------------------------------|
G|----------------------------------------------------------------------------|
D|-10-------10-------------3----5-------7---------3------5-------------8-----5|
A|--8--------7-------------1----3-------5---------1------3--------3----6-----3|
E|----------------------------------------------------------------1-----------|

E|----------------------------------------------------------------------------|
B|------------------------------------------------------3---------------------|
G|------------------------------------------------------0---------------------|
D|-12-------12------------5-------7-----9-----5-----7---0--------10-----------|
A|-10--------9------------3-------5-----7-----3-----5-------------8-----------|
E|------------------------------------------------------3---------------------|

E|---------------------------------------------------------------12--14-------|
B|-12-----12-10-12-13--10-12----12-10-12-13-10-12-13-15-12-13-15-15--17-------|
G|---9-12-------------------9-12----------------------------------------------|
D|----------------------------------------------------------------------------|
A|----------------------------------------------------------------------------|
E|----------------------------------------------------------------------------|

E|------------------------------------------------------------------8-10------|
B|-----------------10---------------------10------10-12----10-12---12-13------|
G|-12---9-12-11-12---11----12-9-12--11-12---11-12-------12--------------------|
D|----9----------------------9------------------------------------------------|
A|----------------------------------------------------------------------------|
E|----------------------------------------------------------------------------|

E|----------------------------------------------------------------------------|
B|----------------------------------------------------------------------------|
G|----------------------------------------------------------------------------|
D|-----------------------------9-9-7-7-5-5---5-5--------------5-----4---------|
A|-5-7---------5-7---------5-7----------------9-9---9-9-7-7-5-5--3----2-------|
E|----0-0-0-0---0-0-0-0----0-0------------------------------------------------|

E|----------------------------------------------------------------------------|
B|-------------------------------------------------------5-5------------------|
G|------------------------------------------------5-5-7-7---------------------|
D|-------------------------------------5-5-7-7-9-9-------------5-----7--------|
A|-5-7-------5-7-------5-7-----7-7-9-9-----------------------3----5-----------|
E|----0-0-0-0---0-0-0-0---0-0-------------------------------------------------|

E|----------------------------------------------------------------------------|
B|-3--------------12-10-10--10-12---13-12-10----15-13-12-----16-13--17--------|
G|-0--9---9-11-12----12----------------12-11-9-----14-12-11--14-11------------|
D|-0---9-9--------------------------------------------------------------------|
A|----------------------------------------------------------------------------|
E|-3--------------------------------------------------------------------------|

[Intro] F  A  G  A
        Bbq  A  D  G 
        A  Bbq  C#  D
        F  A  G  A
        Bbq  A  D  E
        F  A  G  A 
        Bbq  A  C#  E

D   D/C#    D
Somehow I know
    C                D
That things are gonna change
    C                 G
New boundaries on the way
             D
Like never were before
G                      D
Find a meaning to your life
G                       D
Healing whispers of the angels
          Bbq      A
Bring the sunrise again

[Refrão]

F       F/E            Bbq          C  D
New day shines, fallen angels will arise
   C Bbq         C   F              C
Nova Era brings the ashes back to life
F        F/E             Bbq       C     D
All over now, all the great and awful lies
 Bbq     F     Eb
Angels will arise
       D
Back to life!

D     D/Eb      D
Fresh winds of hope
    C          D
Has taken us ahead
  C          G
Forever is a place
                    D
You have to keep in mind
   G                D
No way to limit our goals
        G               D
We'll find a reason to believe
        Bbq  A
Facing Nova Era

[Refrão]

F       F/E            Bbq          C  D
New day shines, fallen angels will arise
   C Bbq         C   F              C
Nova Era brings the ashes back to life
F        F/E             Bbq       C     D
All over now, all the great and awful lies
 Bbq     F     Eb
Angels will arise
       D
Back to life!

Oh! Come on! Arise!

G                      D
Find a meaning to your life
G                   D
No way to limit our goals
G                       D
Healing whispers of the angels
          Bbq      A
Bring the sunrise again!

F       F/E            Bbq          C D
New day shines, fallen angels will arise
   C Bbq         C   F             Eb    C
Nova Era brings the ashes back to life
G        G/F#          C          D   E
All over now, sores in pain and awful lies
C    D G          F           E
Angels lead you through paradise

     C        D               E
Nova Era is a passage to your mind
    C               B            E
And forever you may find a better time
     C             D              G       E
Nova Era bring the angels back to life...life!
00:00 / 00:00
Outros vídeos desta música
Repetir
Outros vídeos desta música
Composição de Edu Falaschi / Felipe Andreoli / Kiko Loureiro / Rafael Bittencourt
226.154 exibições
    • ½ Tom
    • A
    • Bb
    • B
    • C
    • Db
    • D
    • Eb
    • E
    • F
    • F#
    • G
    • Ab
  • Adicionar à lista

    0 comentários

    Ver todos os comentários

    Entre para oCifra Club PRO

    Tenha acesso a benefícios exclusivos no App e no Site

    • Chega de anúncios

    • Prioridade de compra em lançamentos

    • Mais recursos no app do Afinador

    • Atendimento Prioritário

    • Descontos nos produtos Cifra Club

    • Ajude a produzir mais conteúdo

    00:00 / 00:00

    Cifra Club Pro

    Aproveite o Cifra Club com benefícios exclusivos e sem anúncios
    Cifra Club Pro
    Aproveite o Cifra Club com benefícios exclusivos e sem anúncios
    OK