Enviar cifraEntrar

Nova Era

Angra

Tab de baixo: Principal
exibições 28.203
G||------|-------------------|----------------|-----------------|
D||------|--0----------------|----------------|--0--------------|
A||------|-------------0---0-|--1------0------|--------------0--|
E||------|-----------1---3---|----------------|-----------3-----|


                                                                           
----------------|-------------------|----------------|--------------------|
----------------|--0----------------|----------------|--0-----------------|
--1------0------|-------------0---0-|--1------0------|-------------0----0-|
----------------|-----------1---3---|----------------|-------0--1-----3---|


                                                                     
----------------|----------------|----------------------------------|
----------------|---------2------|--0-0-0-0-0-0-0-0-0-0-0-0-0-0-0-0-|
--1------0------|--4-------------|----------------------------------|
----------------|----------------|----------------------------------|


                                                                      
----------------------------------|----------------------------------|
----------------------------------|--0-0-0-0-0-0-0-0-0-0-0-0-0-0-0-0-|
--4-4-4-4-4-4-4-4-4-4-4-4-4-4-4-4-|----------------------------------|
----------------------------------|----------------------------------|


                                                                      
----------------------------------|----------------------------------|
----------------------------------|--0-0-0-0-0-0-0-0-0-0-0-0-0-0-0-0-|
--3-3-3-3-3-3-3-3-3-3-3-3-3-3-3-3-|----------------------------------|
----------------------------------|----------------------------------|


                                   
----------------------------------|
----------------------------------|
--3-3-3-3-3-3-3-3-3-3-3-3-3-3-3-3-|
----------------------------------|


                                                   
--------------------------------------------------|
--------------------------------------------------|
--10-10-10-10-10-10-10-10-10-10-10-10-10-10-10-10-|
--------------------------------------------------|


                                   
----------------------------------|
----------------------------------|
--5-5-5-5-5-5-5-5-5-5-5-5-5-5-5-5-|
----------------------------------|


                                                   
--------------------------------------------------|
--------------------------------------------------|
--10-10-10-10-10-10-10-10-10-10-10-10-10-10-10-10-|
--------------------------------------------------|


                                   
----------------------------------|
----------------------------------|
--5-5-5-5-5-5-5-5-5-5-5-5-5-5-5-5-|
----------------------------------|


                                                   
--------------------------------------------------|
--------------------------------------------------|
--10-10-10-10-10-10-10-10-10-10-10-10-10-10-10-10-|
--------------------------------------------------|


                                                                           
----------------------------------|-------------------|-------------------|
----------------------------------|-------------------|-------------------|
--5-5-5-5-5-5-5-5-5-5-5-5-5-5-5-5-|--1----------------|--0----------------|
----------------------------------|-------------------|-------------------|


                                                           
-----------------------------|----------------------------|
--0--0--0-0-0--0--0-0-0-0-0--|----------------------------|
-----------------------------|--4--4--4--4--4-4-4--4-4-4--|
-----------------------------|----------------------------|


                                                          
----------------------------|----------------------------|
--0--0--0--0--0-0-0--0-0-0--|----------------------------|
----------------------------|--3--3--3--3--3-3-3--3-3-3--|
----------------------------|----------------------------|


                                                           
-----------------------------|----------------------------|
--0--0--0-0-0--0--0-0-0-0-0--|----------------------------|
-----------------------------|--3--3--3--3--3-3-3--3-3-3--|
-----------------------------|----------------------------|


                                                                          
------------------------------------------|------------------------------|
------------------------------------------|------------------------------|
--10--10-10-10-10-10--10--10-10-10-10-10--|--5--5-5-5-5-5--5--5-5-5-5-5--|
------------------------------------------|------------------------------|


                                                                          
------------------------------------------|------------------------------|
------------------------------------------|------------------------------|
--10--10-10-10-10-10--10--10-10-10-10-10--|--5--5-5-5-5-5--5--5-5-5-5-5--|
------------------------------------------|------------------------------|


                                                                          
------------------------------------------|------------------------------|
------------------------------------------|------------------------------|
--10--10-10-10-10-10--10--10-10-10-10-10--|--5--5-5-5-5-5--5--5-5-5-5-5--|
------------------------------------------|------------------------------|


                                                                            
-------------------|--------------------|----------------------------------|
-------------------|--------------------|----------------------------------|
--1----------------|--0--------0--------|----------------------------------|
-------------------|--------------------|--1-1-1-1-1-1-1-1-1-1-1-1-1-1-1-1-|


                                                                      
----------------------------------|----------------------------------|
----------------------------------|----------------------------------|
----------------------------------|--1-1-1-1-1-1-1-1-1-1-1-1-3-3-3-3-|
--0-0-0-0-0-0-0-0-0-0-0-0-0-0-0-0-|----------------------------------|


                                                                      
----------------------------------|----------------------------------|
----------------------------------|----------------------------------|
--5-5-5-5-5-5-5-5-5-5-5-5-5-5-5-5-|--1-1-1-1-1-1-1-1-1-1-1-1-3-3-3-3-|
----------------------------------|----------------------------------|


                                                                      
----------------------------------|----------------------------------|
----------------------------------|----------------------------------|
----------------------------------|--3-3-3-3-3-3-3-3-3-3-3-3-3-3-3-3-|
--1-1-1-1-1-1-1-1-1-1-1-1-1-1-1-1-|----------------------------------|


                                                                      
----------------------------------|----------------------------------|
----------------------------------|----------------------------------|
--3-3-3-3-3-3-3-3-3-3-3-3-3-3-3-3-|----------------------------------|
----------------------------------|--1-1-1-1-1-1-1-1-1-1-1-1-1-1-1-1-|


                                                                      
----------------------------------|----------------------------------|
----------------------------------|----------------------------------|
----------------------------------|--1-1-1-1-1-1-1-1-1-1-1-1-3-3-3-3-|
--0-0-0-0-0-0-0-0-0-0-0-0-0-0-0-0-|----------------------------------|


                                                                      
----------------------------------|----------------------------------|
----------------------------------|----------------------------------|
--5-5-5-5-5-5-5-5-5-5-5-5-5-5-5-5-|--1-1-1-1-1-1-1-1-1-1-1-1-3-3-3-3-|
----------------------------------|----------------------------------|


                                                                      
----------------------------------|----------------------------------|
----------------------------------|----------------------------------|
----------------------------------|--6-6-6-6-6-6-6-6-6-6-6-6-6-6-6-6-|
--1-1-1-1-1-1-1-1-1-1-1-1-1-1-1-1-|----------------------------------|


                                                                      
----------------------------------|----------------------------------|
----------------------------------|--0-0-0-0-0-0-0-0-0-0-0-0-0-0-0-0-|
--6-6-6-6-6-6-6-6-6-6-6-6-6-6-6-6-|----------------------------------|
----------------------------------|----------------------------------|


                                                                      
----------------------------------|----------------------------------|
----------------------------------|--0-0-0-0-0-0-0-0-0-0-0-0-0-0-0-0-|
--4-4-4-4-4-4-4-4-4-4-4-4-4-4-4-4-|----------------------------------|
----------------------------------|----------------------------------|


                                                                      
----------------------------------|----------------------------------|
----------------------------------|----------------------------------|
--3-3-3-3-3-3-3-3-3-3-3-3-3-3-3-3-|----------------------------------|
----------------------------------|--3-3-3-3-3-3-3-3-3-3-3-3-3-3-3-3-|


                                                                           
----------------------------------|-------------------|-------------------|
----------------------------------|-------------------|-------------------|
--5-5-5-5-5-5-5-5-5-5-5-5-5-5-5-5-|--1----------------|--0----------------|
----------------------------------|-------------------|-------------------|


                                                           
-----------------------------|----------------------------|
--0--0--0-0-0--0--0-0-0-0-0--|----------------------------|
-----------------------------|--4--4--4--4--4-4-4--4-4-4--|
-----------------------------|----------------------------|


                                                          
----------------------------|----------------------------|
--0--0--0--0--0-0-0--0-0-0--|----------------------------|
----------------------------|--3--3--3--3--3-3-3--3-3-3--|
----------------------------|----------------------------|


                                                           
-----------------------------|----------------------------|
--0--0--0-0-0--0--0-0-0-0-0--|----------------------------|
-----------------------------|--3--3--3--3--3-3-3--3-3-3--|
-----------------------------|----------------------------|


                                                                          
------------------------------------------|------------------------------|
------------------------------------------|------------------------------|
--10--10-10-10-10-10--10--10-10-10-10-10--|--5--5-5-5-5-5--5--5-5-5-5-5--|
------------------------------------------|------------------------------|


                                                                          
------------------------------------------|------------------------------|
------------------------------------------|------------------------------|
--10--10-10-10-10-10--10--10-10-10-10-10--|--5--5-5-5-5-5--5--5-5-5-5-5--|
------------------------------------------|------------------------------|


                                                                          
------------------------------------------|------------------------------|
------------------------------------------|------------------------------|
--10--10-10-10-10-10--10--10-10-10-10-10--|--5--5-5-5-5-5--5--5-5-5-5-5--|
------------------------------------------|------------------------------|


                                                                            
-------------------|--------------------|----------------------------------|
-------------------|--------------------|----------------------------------|
--1----------------|--0--------0--------|----------------------------------|
-------------------|--------------------|--1-1-1-1-1-1-1-1-1-1-1-1-1-1-1-1-|


                                                                      
----------------------------------|----------------------------------|
----------------------------------|----------------------------------|
----------------------------------|--1-1-1-1-1-1-1-1-1-1-1-1-3-3-3-3-|
--0-0-0-0-0-0-0-0-0-0-0-0-0-0-0-0-|----------------------------------|


                                                                      
----------------------------------|----------------------------------|
----------------------------------|----------------------------------|
--5-5-5-5-5-5-5-5-5-5-5-5-5-5-5-5-|--1-1-1-1-1-1-1-1-1-1-1-1-3-3-3-3-|
----------------------------------|----------------------------------|


                                                                      
----------------------------------|----------------------------------|
----------------------------------|----------------------------------|
----------------------------------|--3-3-3-3-3-3-3-3-3-3-3-3-3-3-3-3-|
--1-1-1-1-1-1-1-1-1-1-1-1-1-1-1-1-|----------------------------------|


                                                                      
----------------------------------|----------------------------------|
----------------------------------|----------------------------------|
--3-3-3-3-3-3-3-3-3-3-3-3-3-3-3-3-|----------------------------------|
----------------------------------|--1-1-1-1-1-1-1-1-1-1-1-1-1-1-1-1-|


                                                                      
----------------------------------|----------------------------------|
----------------------------------|----------------------------------|
----------------------------------|--1-1-1-1-1-1-1-1-1-1-1-1-3-3-3-3-|
--0-0-0-0-0-0-0-0-0-0-0-0-0-0-0-0-|----------------------------------|


                                                                      
----------------------------------|----------------------------------|
----------------------------------|----------------------------------|
--5-5-5-5-5-5-5-5-5-5-5-5-5-5-5-5-|--1-1-1-1-1-1-1-1-1-1-1-1-3-3-3-3-|
----------------------------------|----------------------------------|


                                                                      
----------------------------------|----------------------------------|
----------------------------------|----------------------------------|
----------------------------------|--6-6-6-6-6-6-6-6-6-6-6-6-6-6-6-6-|
--1-1-1-1-1-1-1-1-1-1-1-1-1-1-1-1-|----------------------------------|


                                                                          
----------------------------------|-------------------|------------------|
----------------------------------|-------------------|------------------|
--6-6-6-6-6-6-6-6-6-6-6-6-6-6-6-6-|--5----------------|------------------|
----------------------------------|-------------------|------------------|


                                                                               
--------------------|------------------|-------------------|------------------|
--------------------|------------------|-------------------|------------------|
--5--------5--------|------------------|--5----------------|------------------|
--------------------|------------------|-------------------|------------------|


                                                                           
--------------------|------------------|----------------------------------|
--------------------|------------------|--0-0-0-0-0-0-0-0-0-0-0-0-0-0-0-0-|
--5--------5--------|------------------|----------------------------------|
--------------------|------------------|----------------------------------|


                                                                      
----------------------------------|----------------------------------|
--0-0-0-0-0-0-0-0-0-0-0-0-0-0-0-0-|--0-0-0-0-0-0-0-0-0-0-0-0-0-0-0-0-|
----------------------------------|----------------------------------|
----------------------------------|----------------------------------|


                                                                      
----------------------------------|----------------------------------|
--0-0-0-0-0-0-0-0-0-0-0-0-0-0-0-0-|----------------------------------|
----------------------------------|--0-0-0-0-0-0-0-0-0-0-0-0-0-0-0-0-|
----------------------------------|----------------------------------|


                                                                      
----------------------------------|----------------------------------|
--0-0-0-0-0-0-0-0-0-0-0-0-0-0-0-0-|----------------------------------|
----------------------------------|----------------------------------|
----------------------------------|--2-2-2-2-2-2-2-2-2-2-2-2-2-2-2-2-|


                                                                      
----------------------------------|----------------------------------|
----------------------------------|----------------------------------|
----------------------------------|----------------------------------|
--2-2-2-2-2-2-2-2-2-2-2-2-2-2-2-2-|--3-3-3-3-3-3-3-3-3-3-3-3-3-3-3-3-|


                                                                      
----------------------------------|----------------------------------|
----------------------------------|----------------------------------|
----------------------------------|----------------------------------|
--3-3-3-3-3-3-3-3-3-3-3-3-3-3-3-3-|--1-1-1-1-1-1-1-1-1-1-1-1-1-1-1-1-|


                                                                      
----------------------------------|----------------------------------|
----------------------------------|--1-1-1-1-1-1-1-1-1-1-1-1-1-1-1-1-|
----------------------------------|----------------------------------|
--1-1-1-1-1-1-1-1-1-1-1-1-1-1-1-1-|----------------------------------|


                                                                      
----------------------------------|----------------------------------|
----------------------------------|----------------------------------|
--3-3-3-3-3-3-3-3-3-3-3-3-3-3-3-3-|--1-1-1-1-1-1-1-1-1-1-1-1-1-1-1-1-|
----------------------------------|----------------------------------|


                                                                      
----------------------------------|----------------------------------|
----------------------------------|----------------------------------|
----------------------------------|----------------------------------|
--1-1-1-1-1-1-1-1-2-2-2-2-2-2-2-2-|--3-3-3-3-3-3-3-3-3-3-3-3-3-3-3-3-|


                                                                      
----------------------------------|----------------------------------|
----------------------------------|----------------------------------|
----------------------------------|----------------------------------|
--3-3-3-3-3-3-3-3-3-3-3-3-3-3-3-3-|--1-1-1-1-1-1-1-1-1-1-1-1-1-1-1-1-|


                                                                      
----------------------------------|----------------------------------|
----------------------------------|--1-1-1-1-1-1-1-1-1-1-1-1-1-1-1-1-|
----------------------------------|----------------------------------|
--1-1-1-1-1-1-1-1-1-1-1-1-1-1-1-1-|----------------------------------|


                                                                             
----------------------------------|--10-9-7-5-4-2-13-10-9-7-5-4-14-13-------|
----------------------------------|-----------------------------------15-14-|
--3-3-3-3-3-3-3-3-3-3-3-3-3-3-3-3-|-----------------------------------------|
----------------------------------|-----------------------------------------|


                                                   
--16-14-13----------17-16-14-13-------19-16-------|
-----------15-14-13-------------15-14-------18-15-|
--------------------------------------------------|
--------------------------------------------------|


                                                                      
----------------------------------|----------------------------------|
----------------------------------|----------------------------------|
----------------------------------|----------------------------------|
--5-5-5-5-5-5-5-5-5-5-5-5-5-5-5-5-|--4-4-4-4-4-4-4-4-4-4-4-4-4-4-4-4-|


                                                                      
----------------------------------|----------------------------------|
----------------------------------|----------------------------------|
----------------------------------|--1-1-1-1-1-1-1-1-----------------|
--1-1-1-1-1-1-1-1-1-1-1-1-1-1-1-1-|------------------4-4-4-4-4-4-4-4-|


                                                                      
----------------------------------|----------------------------------|
----------------------------------|----------------------------------|
--0-0-0-0-0-0-0-0-0-0-0-0-0-0-0-0-|----------------------------------|
----------------------------------|--4-4-4-4-4-4-4-4-4-4-4-4-4-4-4-4-|


                                                                      
----------------------------------|----------------------------------|
----------------------------------|----------------------------------|
----------------------------------|--1-1-1-1-1-1-1-1-3-3-3-3-3-3-3-3-|
--1-1-1-1-1-1-1-1-1-1-1-1-1-1-1-1-|----------------------------------|


                                                                      
----------------------------------|----------------------------------|
----------------------------------|----------------------------------|
--5-5-5-5-5-5-5-5-5-5-5-5-5-5-5-5-|--4-4-4-4-4-4-4-4-4-4-4-4-4-4-4-4-|
----------------------------------|----------------------------------|


                                                                      
----------------------------------|----------------------------------|
----------------------------------|--1-1-1-1-1-1-1-1-----------------|
--1-1-1-1-1-1-1-1-1-1-1-1-1-1-1-1-|------------------4-4-4-4-4-4-4-4-|
----------------------------------|----------------------------------|


                                                                      
----------------------------------|----------------------------------|
--0-0-0-0-0-0-0-0-0-0-0-0-0-0-0-0-|----------------------------------|
----------------------------------|--4-4-4-4-4-4-4-4-4-4-4-4-4-4-4-4-|
----------------------------------|----------------------------------|


                                                                              
----------------------------------|----------------------|-------------------|
----------------------------------|----------------------|-------------------|
--1-1-1-1-1-1-1-1-1-1-1-1-1-1-1-1-|--2----2----2----2----|-------------------|
----------------------------------|----------------------|--0----------------|


                                                                      
------------------------0-|------------------|-----------------------|
------------------0-2-4---|------------------|--2--0---------0----2--|
------------0-2-3---------|------------------|------------3----------|
----------3---------------|------------------|-----------------------|


                                                         
------------------------|-------------12-11-9-7-5-4-2-0-|
------------------------|-------------------------------|
------------------------|-------------------------------|
--0--0----0--0--0----0--|----0--0--0--------------------|


                                                                          
------------------------|-----------------------|------------------------|
------------------------|--2--0---------0----2--|------------------------|
------------------------|------------3----------|------------------------|
--0--0----0--0--0----0--|-----------------------|--0--0----0--0--0----0--|


                                                                                
------------------------0-|-------------------------|--------------------------|
------------------0-2-4---|-------------------------|--------2------------2----|
------------0-2-3---------|-------------------------|--------------------------|
----------3---------------|--0--0----0--0----0-0-0--|----0-0------0-0-0-0------|


                                                                      
----------------------------------|----------------------------------|
----------------------------------|----------------------------------|
----------------------------------|--3-3-3-3-3-3-3-3-3-3-3-3-3-3-3-3-|
--3-3-3-3-3-3-3-3-3-3-3-3-3-3-3-3-|----------------------------------|


                                                                      
----------------------------------|----------------------------------|
----------------------------------|----------------------------------|
----------------------------------|--1-1-1-1-1-1-1-1-1-1-1-1-1-1-1-1-|
--1-1-1-1-1-1-1-1-1-1-1-1-1-1-1-1-|----------------------------------|


                                                                      
----------------------------------|----------------------------------|
----------------------------------|--6-6-6-6-6-6-6-6-6-6-6-6-6-6-6-6-|
--6-6-6-6-6-6-6-6-6-6-6-6-6-6-6-6-|----------------------------------|
----------------------------------|----------------------------------|


                                        
-------------------|-------------------|
-------------------|-------------------|
--0----------------|--5----------------|
-------------------|-------------------|


                                                                          
------------------------------------------|------------------------------|
------------------------------------------|------------------------------|
--10--10-10-10-10-10--10--10-10-10-10-10--|--5--5-5-5-5-5--5--5-5-5-5-5--|
------------------------------------------|------------------------------|


                                                                          
------------------------------------------|------------------------------|
------------------------------------------|------------------------------|
--10--10-10-10-10-10--10--10-10-10-10-10--|--5--5-5-5-5-5--5--5-5-5-5-5--|
------------------------------------------|------------------------------|


                                                                          
------------------------------------------|------------------------------|
------------------------------------------|------------------------------|
--10--10-10-10-10-10--10--10-10-10-10-10--|--5--5-5-5-5-5--5--5-5-5-5-5--|
------------------------------------------|------------------------------|


                                                                            
-------------------|--------------------|----------------------------------|
-------------------|--------------------|----------------------------------|
--1----------------|--0--------0--------|----------------------------------|
-------------------|--------------------|--1-1-1-1-1-1-1-1-1-1-1-1-1-1-1-1-|


                                                                      
----------------------------------|----------------------------------|
----------------------------------|----------------------------------|
----------------------------------|--1-1-1-1-1-1-1-1-1-1-1-1-3-3-3-3-|
--0-0-0-0-0-0-0-0-0-0-0-0-0-0-0-0-|----------------------------------|


                                                                      
----------------------------------|----------------------------------|
----------------------------------|----------------------------------|
--5-5-5-5-5-5-5-5-5-5-5-5-5-5-5-5-|--1-1-1-1-1-1-1-1-1-1-1-1-3-3-3-3-|
----------------------------------|----------------------------------|


                                                                      
----------------------------------|----------------------------------|
----------------------------------|----------------------------------|
----------------------------------|--6-6-6-6-6-6-6-6-6-6-6-6-6-6-6-6-|
--1-1-1-1-1-1-1-1-1-1-1-1-1-1-1-1-|----------------------------------|


                                   
----------------------------------|
----------------------------------|
--3-3-3-3-3-3-3-3-3-3-3-3-3-3-3-3-|
----------------------------------|


                                                   
--------------------------------------------------|
--------------------------------------------------|
--10-10-10-10-10-10-10-10-10-10-10-10-10-10-10-10-|
--------------------------------------------------|


                                                                      
----------------------------------|----------------------------------|
----------------------------------|----------------------------------|
--9-9-9-9-9-9-9-9-9-9-9-9-9-9-9-9-|--3-3-3-3-3-3-3-3-3-3-3-3-5-5-5-5-|
----------------------------------|----------------------------------|


                                                                      
----------------------------------|----------------------------------|
----------------------------------|----------------------------------|
--7-7-7-7-7-7-7-7-7-7-7-7-7-7-7-7-|--3-3-3-3-3-3-3-3-3-3-3-3-5-5-5-5-|
----------------------------------|----------------------------------|


                                                                      
----------------------------------|----------------------------------|
----------------------------------|----------------------------------|
----------------------------------|----------------------------------|
--3-3-3-3-3-3-3-3-3-3-3-3-3-3-3-3-|--1-1-1-1-1-1-1-1-1-1-1-1-1-1-1-1-|


                                                                      
----------------------------------|----------------------------------|
----------------------------------|--2-2-2-2-2-2-2-2-2-2-2-2-2-2-2-2-|
----------------------------------|----------------------------------|
--1-1-1-1-1-1-1-1-1-1-1-1-1-1-1-1-|----------------------------------|


                                                                      
----------------------------------|----------------------------------|
--1-1-1-1-1-1-1-1-1-1-1-1-1-1-1-1-|--2-2-2-2-2-2-2-2-2-2-2-2-2-2-2-2-|
----------------------------------|----------------------------------|
----------------------------------|----------------------------------|


                                                                      
----------------------------------|----------------------------------|
--0-0-0-0-0-0-0-0-0-0-0-0-0-0-0-0-|----------------------------------|
----------------------------------|--3-3-3-3-3-3-3-3-3-3-3-3-3-3-3-3-|
----------------------------------|----------------------------------|


                                                                      
----------------------------------|----------------------------------|
--0-0-0-0-0-0-0-0-0-0-0-0-0-0-0-0-|--2-2-2-2-2-2-2-2-2-2-2-2-2-2-2-2-|
----------------------------------|----------------------------------|
----------------------------------|----------------------------------|


                                                                      
----------------------------------|----------------------------------|



_______________________________________________________
Contribuição: Daniel Fernandes(daniel_orochi@hotmail.com)
  • 1
  • 2
  • 3
  • 4
  • 5
  • 6
  • 7
  • 8
  • 9
  • 10
  • 11
  • 12

    0 comentários

      mostrar mais comentários

      Conseguiu tocar?

      3tocaram0ainda não

      Grave um vídeo tocando Nova Era e mande pra gente!

      00:00 / 00:00
      outros vídeos desta música
      repetirqualidadeautomática
      • automática
      Outro vídeos desta música
        00:00 / 00:00
        automática
        • automática
        fecharplay/pause subir/descer velocidade
        fechar
        OK