Cifra Club

Aprenda

Petrified Eyes

Angra

Cifra: Principal (violão e guitarra)
Tom: F
/ - slide
/ - bend
* - armonico artificial
# - abafado
~ - vibrato (de preferencia com alavanca)


Guitarra kiko

|--------------------------------------------------|
|----15--11/13--11/13--11--------------------------|
|12-------------------------------12------15--12---|
|--------------------------12/15------15-----------|
|--------------------------------------------------|
|--------------------------------------------------|

|--------------------------------------------------|
|--------------------------------------------------|
|----12--------------------------------------------|
|15------15--12--10--10----------------------------|
|------------------------10--10--------------------|
|--------------------------------------------------|

|--------13--15------------------------------------|
|----15----------15/11-----14-15-14-12-------------|
|12---------------------12-------------15-14-12----|
|--------------------------------------------------|
|--------------------------------------------------|
|--------------------------------------------------|

|--------------------------------------------------|
|--------------------------------------------------|
|----------------12-12--(12#12#12#)-15/--15-15----|
|15-14-12-14-15------------------------------------|
|--------------------------------------------------|
|--------------------------------------------------|

|------------------------------------15----13----12|
|--------------------------------13/--13/--13/--|
|13--12------12--15/--15-15/19--------------------|
|---------15---------------------------------------|
|--------------------------------------------------|
|--------------------------------------------------|

Apartir daqui eu não consegui tirar muito bem então eu dei uma
improvisada e tentei deixar o mais parecido possivel.
|----------------------------------------13-15-15--|
|15-13-12---------------------------13-15----------|
|---------14-15-14-12---12--------15---------------|
|--------------------15---15-14-12-----------------|
|--------------------------------------------------|
|--------------------------------------------------|

Agora fica mais rapido.
|15-------------------------------15---------------|
|15-14/15-12----------------------15-14/15-12------|
|------------15-12-(12#12#)-17-15------------15-12-|
|--------------------------------------------------|
|--------------------------------------------------|
|--------------------------------------------------|

|------------15------------------------------------|
|------------15-14/15-12---------------------------|
|------12----------------15-12-(12*~)--------------|
|15-15---------------------------------------------|
|---------10---------------------------------------|
|--------------------------------------------------|

|---18----15----12----9----------------------------|
|20----15----13----11---8-6/-6-8-6----------------|
|-----------------------------------7-5-3----------|
|-----------------------------------------5-3------|
|---------------------------------------------3-5--|
|-------------------------------------------------3|

|--------------------------------------------------|
|13/15-13/----13----------------------------------|
|-----------15----12-------12----15-12----12-------|
|--------------------12/15----15-------15----15-12-|
|--------------------------------------------------|
|--------------------------------------------------|

|--------------------------------------------------|
|--------------------------------------------------|
|---------12~--------------------------------------|
|---12-15------------------------------------------|
|15------------------------------------------------|
|--------------------------------------------------|

                             F   G 
We´re armed and ready to attack
                         F    
To strike the city of all desires
D#             C                  F
Then calm the waves that lend to passion
     D    C    Bb                D#
When all reality turns back to ashes
G                      F
Over the hills, across the sea
G                      F
Into the abyss of a bygone time
D#                   C      F
Lest we forget what really matters
     D     C    Bb                D#    
And the bewildered look up to the sky

4X
|--------------------------------------------------|
|--------------------------------------------------|
|--------------------------------------------------|
|---12-14-14/15-14-12-14-15-14-12----------14-12---|
|12-------------------------------15-12-15---------|
|--------------------------------------------------|

Bb       G                   A          
Fallen comrades lay on the ground
G           F                  C
Victors in death they make no sound
D              A
Petrified my eyes
D                      A
Behold the sights of battle lost
  F                 C
In this unchanging world
               Bb            D
What does the poor life of a warrior cost?

|--------------------------------------------------|
|--------------------------------15----------15-14-|
|---------12---------------12-15----------15-------|
|------12----14/-12-12-12----------12/15----------|
|---13---------------------------------------------|
|15------------------------------------------------|

Agora é mais rapido
|--------------------------------------------------|
|--------------------------------------------------|
|14/15-12-14-14/15-12-14-14-15-14-12-14-12---------|
|------------------------------------------15-14-12|
|--------------------------------------------------|
|--------------------------------------------------|

Agora fica o Rafael fazendo tipo um dedilhado ai o kiko entra com isso. 2X
|--------------------------------------------------|
|--------------------------------------------------|
|------16----------------------17------------------|
|10/12---------(9~)------10/13---------------------|
|--------------------------------------------------|
|--------------------------------------------------|

 B
Oh can´t you see
 G (abafago varias vezes)
Many faces from God´s own races are waiting To fight the good fight.

Bem rapido.
|14/-15-14-12-15-15-14-12-15----------------------|
|-----------------------------15-14-12-------------|
|--------------------------------------15-14-12----|
|--------------------------------------------------|
|--------------------------------------------------|
|--------------------------------------------------|

|--------------------------------------------------|
|--------------------------------------------------|
|---------15-14-(12~)------------------------------|
|15-14-12------------------------------------------|
|--------------------------------------------------|
|--------------------------------------------------|

G (abafado varias vezes)
Even though the annals of time have passed you by you still don´t see

Bem rapido.
|14/-15-14-12-15-15-14-12-15-15-14-12-15----------|
|--------------------------------------------------|
|--------------------------------------------------|
|--------------------------------------------------|
|--------------------------------------------------|
|--------------------------------------------------|

|15-14-12------------------------------------------|
|---------15-14-12---------------------------------|
|------------------15-14-12------------------------|
|---------------------------15-14-12---------------|
|--------------------------------------------------|
|--------------------------------------------------|

Oh, you won´t see.  They´ve petrified my eyes.
|--------------------------------------------------|
|19/-19-17-19-17-14-11-14-12-15-------------------|
|--------------------------------------------------|
|--------------------------------------------------|
|--------------------------------------------------|
|--------------------------------------------------|

Bom, o refrão só a guitarra eu não consegui tirar, então quem conseguir, por favor...

D              A
Petrified my eyes
D                      A
Behold the sights of battle lost
  F                 C
In this unchanging world
                Bb            D
What does the poor life of a warrior cost?

D                A
Deep desires of mine
D                          A
Dark thoughts tyrannize my mind
F                     C
When will this torture end
           Bb                D
Into the mire, to battle again

4X
|--------------------------------------------------|
|--------------------------------------------------|
|--------------------------------------------------|
|---12-14-14/15-14-12-14-15-14-12----------14-12---|
|12-------------------------------15-12-15---------|
|--------------------------------------------------|

Riff do finalzinho.
G|-------------------------------------------------|
D|-------------------------------------------------|
A|----1/3-1-----3/5-5-5-5-3-1----------------------|
E|3-3-------3-1------------------------------------|

G|-------------------------------------------------|
D|--------------1/3-3-3-3-3-3----12----------------|
A|----1/3-1----------------------10----------------|
E|3-3-------3-1------------------------------------|
Composição de Bittencourt / Tsangarides
Colaboração e revisão:
  • Giulliano finazzo
6.442 exibições
    • ½ Tom
    • A
    • Bb
    • B
    • C
    • Db
    • D
    • Eb
    • E
    • F
    • F#
    • G
    • Ab
  • Adicionar à lista

    0 comentários

    Mostrar mais comentários

    Conseguiu tocar?

    0 Tocaram 0 Ainda não

    Grave um vídeo tocando Petrified Eyes e mande pra gente!

    00:00 / 00:00
    outros vídeos desta música
    repetir qualidade Automático
    Outros vídeos desta música
    00:00 / 00:00
    Automático

    Cifra Club Pro

    Aproveite o Cifra Club com benefícios exclusivos e sem anúncios
    Cifra Club Pro
    Aproveite o Cifra Club com benefícios exclusivos e sem anúncios
    OK