Cifra Club

Aprenda

Reaching Horizons

Angra

Cifra: Principal (violão e guitarra)
Tom: C
Primeira Parte Intro: 
Am11  F7M    C  C7(11)
    Dm7 Fm/Ab

   Am11               F7M
E|-------0------------------0---------------|
B|-----3---0h1p0----------1---3p1-----------|
G|---5-----------0h2----2---------2---------|
D|--------------------3-------------0-------|
A|-0----------------------------------------|
E|------------------------------------------|

                  C         C7(11)
E|---------0--------------------------------|
B|-3-----3-----3/5--5-----5/6-5-----5-------|
G|-----1-----1----------0---------3---------|
D|---3----------------2---------3-----------|
A|-2----------------3---------3-------------|
E|------------------------------------------|

                     Dm7
E|-3-------0--3-----3/6--5------------------|
B|-----5/6--------2----------6--------------|
G|---6----------3----------5---5------------|
D|-5----------2----------0------------------|
A|------------------------------------------|
E|------------------------------------------|

   Fm/Ab
E|---------8--------------------------------|
B|-----6-------6----------------------------|
G|---5---5---5---5--------------------------|
D|-6----------------------------------------|
A|------------------------------------------|
E|------------------------------------------|

Segunda Parte Intro: 
Am9  Am7(9)  F7M/C  Am9  Am7(9) F7M/C

   Am9              Am7(9)
E|---------0--------------3-----------------|
B|-------1-----1--------0-------------------|
G|-----4-----4---4----5---------------------|
D|---2--------------------------------------|
A|-0----------------0-----------------------|
E|------------------------------------------|

   F7M/C
E|---------0--------------------------------|
B|-------1-----1----------------------------|
G|-----2-----2---2--------------------------|
D|---3--------------------------------------|
A|-3----------------------------------------|
E|------------------------------------------|

   Am9              Am7(9)
E|---------0--------------3-----------------|
B|-------1-----1--------0-------------------|
G|-----4-----4---4----5---------------------|
D|---2--------------------------------------|
A|-0----------------0-----------------------|
E|------------------------------------------|

   F7M/C            H.N .
E|---------0--------12----------------------|
B|-------1-----1--------13------------------|
G|-----2-----2---2--------------------------|
D|---3--------------------------------------|
A|-3----------------------------------------|
E|------------------------------------------|

Primeira Estrofe:

Am9         Am7(9)
    Rainy clouds
        F7M/C
Covered up the sunny sky
Am9         Am7(9)          F7M/C
    Now I know I'll sleep alone tonight
Am9             Am7(9)
    Tears and prays
         F7M/C
Will be taken by the rain
Am9           Am7(9)
    Fear and lonelyness 
        F7M/C  G6/D
In my dreams

Parte 1 de 2 - 3x:

   Am9              Am7(9)
E|---------0--------------3-----------------|
B|-------1-----1--------0-------------------|
G|-----4-----4---4----5---------------------|
D|---2--------------------------------------|
A|-0----------------0-----------------------|
E|------------------------------------------|

   F7M/C
E|---------0------------------0-------------|
B|-------1-----1----------1-------1---------|
G|-----2-----2---2------2---2---2-----------|
D|---3----------------3---------------------|
A|-3----------------3-----------------------|
E|------------------------------------------|

Parte 2 de 2

   Am9              Am7(9)
E|---------0--------------3-----------------|
B|-------1-----1--------0-------------------|
G|-----4-----4---4----5---------------------|
D|---2--------------------------------------|
A|-0----------------0-----------------------|
E|------------------------------------------|

   F7M              G6/D
E|---------0----------------0---------------|
B|-------6-----6----------3-----3-----------|
G|-----5-----5---5------4-----4---4---------|
D|---7----------------5---------------------|
A|-8----------------5-----------------------|
E|------------------------------------------|

Segunda Estrofe:

           E7(9-)         C7M
       And I know I'll never be 
     Em7(5-)  A7(13-)      Dm7
The same     living this tragedy
   Dm7(5-)  G/B    F7M
Insane      all I wanna be 
    G               Em       F
Is to be free with you with me
          G
I don't blame the fate 
          E7(9-)
But it's too hard to face the truth

Segunda Estrofe:

                  E7(9-)
E|---------------0----7-------4p0-----------|
B|-3------6--------6-------6---------6------|
G|---1------4-----------7----------7---7----|
D|-----3------6-----------------------------|
A|-2------5---------------------------------|
E|--------------------0---------------------|

   C7M              Em7(5-)     A7(13-)
E|-7-----5-----0----3-----------1p0---------|
B|---0-----0----------3---------2---2-------|
G|-----5-----5---0------3-------0-----0-----|
D|------------------2-----------------------|
A|-3-----3----------------------0-----------|
E|------------------------------------------|

   Dm7              Dm7(5-)   G/B
E|-1---1---1---1----1-----------------------|
B|-1---1---1---1----1---------3-------------|
G|---2---2---2---2--1---------0-------------|
D|-0----------------0---------0-------------|
A|----------------------------2-------------|
E|------------------------------------------|

   F7M                 G
E|------------------------------------------|
B|---------1-------------------3------------|
G|-----2--------2----------0-------0--------|
D|---2---2----2---2------0---0---0---0------|
A|------------------------------------------|
E|-1-------------------3--------------------|

   Em               F
E|------------------------------------------|
B|---------0----------------1---------------|
G|-----0-------0--------2-------2-----------|
D|---2---2---2---2----3---3---3---3---------|
A|------------------------------------------|
E|-0----------------1-----------------------|

   G                 E7(9-)
E|------------------------------------------|
B|---------3---------6----------------------|
G|-----0-------0-----7----------------------|
D|---0---0---0---0---6----------------------|
A|-------------------7----------------------|
E|-3-----------------0----------------------|

Terceira Estrofe:

Am9                       F
    It was all just like paradise
G                       C  G/B  Am  G6(9)
Just like we wanted to be
 F              G
Far beyond the reason
Em           F
   Rest our lives

  G         E
Eternity denies
     F         G               C   G
The guilt of reality senselessness

Terceira Estrofe:

   Am9
E|---------0-----5h7h8----------5-----------|
B|-------0---0--------------0-----0---------|
G|-----5-------5----------5---5-----5-------|
D|---7--------------------------------------|
A|-0--------------------0-------------------|
E|------------------------------------------|

   G
E|-5----3------------------3----------------|
B|----0---0---0--------0-------0------------|
G|---0------0---0----0---0---0---0----------|
D|------------------------------------------|
A|------------------------------------------|
E|-3---------------3------------------------|

   F
E|---------1-----------------1--------------|
B|-----1-------1---------1-------1----------|
G|---2---2---2---2-----2---2---2---2--------|
D|------------------------------------------|
A|------------------------------------------|
E|-1-----------------1----------------------|

   G
E|---------3----------------3---------------|
B|-----0-------0--------0-------0-----------|
G|---0---0---0---0----0---0---0---0---------|
D|------------------------------------------|
A|------------------------------------------|
E|-3----------------3-----------------------|

   C        G/B        Am         G6(9)
E|-0----3-------0------------0-------0------|
B|----------3-------3--1--------0------0----|
G|---0--------0---0------2--------2------2--|
D|------------------------------------------|
A|-3--------2----------0--------------------|
E|--------------------------------3---------|

   F                G
E|---------1----------------3---------------|
B|-----1-------1--------0-------0-----------|
G|---2---2---2---2----0---0---0---0---------|
D|------------------------------------------|
A|------------------------------------------|
E|-1----------------3-----------------------|

   Em               F
E|---------0----------------1---------------|
B|-----0-------0--------1-------1-----------|
G|---0---0---0---0----2---2---2---2---------|
D|------------------------------------------|
A|------------------------------------------|
E|-0----------------1-----------------------|

   G                E
E|---------3----------------0---------------|
B|-----0-------0--------0-------0-----------|
G|---0---0---0---0----1---1---1---1---------|
D|------------------------------------------|
A|------------------------------------------|
E|-3----------------0-----------------------|

   F                G
E|---------1----------------3---------------|
B|-----1-------1--------0-------0-----------|
G|---2---2---2---2----0---0---0---0---------|
D|------------------------------------------|
A|------------------------------------------|
E|-1----------------3-----------------------|

   C                           G
E|---------3----------------3---------------|
B|-----1-------1--------1----------0--------|
G|---0---0---0---0----0---0------0----------|
D|------------------------------------------|
A|-3----------------3-----------------------|
E|-----------------------------3------------|

Refrão:

F      C    G            Am  G6(9)
  Fly high,   reaching skies
F              G
  Two eagles flying 
        C  G/B  Am  G6(9)
To be free
F             C
  Moments of madness 
G                 Am  G6(9)
  Will be left behind
F             G
  The same horizon
        Am             G
But in different lands

F      C    E            Am  G6(9)
  Fly high,   reaching skies
F              G
  Two eagles flying 
        C  G/B  Am  G6(9)
To be free
F             C
  Moments of madness 
G                 Am  G  F
  Will be left behind
            G
The same horizon
                  
But in different lands

Refrão - Primeira Parte:

   F                C
E|---------1----------------3---------------|
B|-----1-------1--------1-------------------|
G|---2---2---2---2----0---0---0-------------|
D|------------------------------------------|
A|------------------3-----------------------|
E|-1----------------------------------------|

       G                Am       G6(9)
E|-------------3----------------------------|
B|---------0-------0----------1--------0----|
G|-------0---0---0---0------2--------2------|
D|------------------------2--------2--------|
A|----------------------0-------------------|
E|-0h1-3-------------------------3----------|

   F                G
E|---------1----------------3---------------|
B|-----1-------1--------0-------0-----------|
G|---2---2---2---2----0---0---0---0---------|
D|------------------------------------------|
A|------------------------------------------|
E|-1----------------3-----------------------|

   C      G/B         Am    G6(9)
E|-0---3------0-------------0------0--------|
B|--------3--------3--1-------0------0------|
G|---0------0---0--------2------2------2----|
D|------------------------------------------|
A|-3------2-----------0---------------------|
E|--------------------------3---------------|

   F                C
E|---------1----------------3---------------|
B|-----1-------1--------1-------------------|
G|---2---2---2---2----0---0---0-------------|
D|------------------------------------------|
A|------------------3-----------------------|
E|-1----------------------------------------|

       G                Am       G6(9)
E|-------------3----------------------------|
B|---------0-------0----------1--------0----|
G|-------0---0---0---0------2--------2------|
D|------------------------2--------2--------|
A|----------------------0-------------------|
E|-0h1-3-------------------------3----------|

   F                G
E|---------1----------------3---------------|
B|-----1-------1--------0-------0-----------|
G|---2---2---2---2----0---0---0---0---------|
D|------------------------------------------|
A|------------------------------------------|
E|-1----------------3-----------------------|

   Am                          G
E|---------0----------------0---------------|
B|-----1-------1--------1----------3--------|
G|---2---2---2---2----2---2------0----------|
D|------------------------------------------|
A|-0----------------0-----------------------|
E|-----------------------------0------------|

Refrão: Segunda Parte

   F                C
E|---------1----------------3---------------|
B|-----1-------1--------1-------1-----------|
G|---2---2---2---2----0---0---0---0---------|
D|------------------------------------------|
A|------------------3-----------------------|
E|-1----------------------------------------|

   E                Am      G6(9)
E|---------0--------------------------------|
B|-----0-------0----------1--------1--------|
G|---1---1---1---1------2--------2----------|
D|--------------------2--------2------------|
A|------------------0-----------------------|
E|-0-------------------------3--------------|

   F                G
E|---------1----------------3---------------|
B|-----1-------1--------0-------0-----------|
G|---2---2---2---2----0---0---0---0---------|
D|------------------------------------------|
A|------------------------------------------|
E|-1----------------3-----------------------|

   C      G/B         Am    G6(9)
E|-0---3------0-------------0------0--------|
B|--------3--------3--1-------0------0------|
G|---0------0---0--------2------2------2----|
D|------------------------------------------|
A|-3------2-----------0---------------------|
E|--------------------------3---------------|

   F                C
E|---------1----------------3---------------|
B|-----1-------1--------1-------------------|
G|---2---2---2---2----0---0---0-------------|
D|------------------------------------------|
A|------------------3-----------------------|
E|-1----------------------------------------|

       G                Am   G    F    G
E|-------------3--------0----3----1----3----|
B|---------0-------0----1----0----1----0----|
G|-------0---0---0---0--2----0----2----0----|
D|----------------------2----0----3----0----|
A|----------------------0----2----3----2----|
E|-0h1-3---------------------3----1----3----|


Repete Introdução:

   Am11               F7M
E|-------0------------------0---------------|
B|-----3---0h1p0----------1---3p1-----------|
G|---5-----------0h2----2---------2---------|
D|--------------------3-------------0-------|
A|-0----------------------------------------|
E|------------------------------------------|

                  C         C7(11)
E|---------0--------------------------------|
B|-3-----3-----3/5--5-----5/6-5-----5-------|
G|-----1-----1----------0---------3---------|
D|---3----------------2---------3-----------|
A|-2----------------3---------3-------------|
E|------------------------------------------|

                     Dm7
E|-3-------0--3-----3/6--5------------------|
B|-----5/6--------2----------6--------------|
G|---6----------3----------5---5------------|
D|-5----------2----------0------------------|
A|------------------------------------------|
E|------------------------------------------|

   Fm/Ab
E|---------8--------------------------------|
B|-----6-------6----------------------------|
G|---5---5---5---5--------------------------|
D|-6----------------------------------------|
A|------------------------------------------|
E|------------------------------------------|

Final:
              H.N  . 
E|---------7--------------------------------|
B|-------0----------------------------------|
G|-----5------17----------------------------|
D|---7------------19------------------------|
A|-0----------------------------------------|
E|------------------------------------------|
Composição de Rafael Bittencourt
Colaboração e revisão:
  • Caroline Leroy
  • Sergio Rangel
  • Estevão Alberton
75.146 exibições
    • ½ Tom
    • A
    • Bb
    • B
    • C
    • Db
    • D
    • Eb
    • E
    • F
    • F#
    • G
    • Ab
  • Adicionar à lista

    0 comentários

    Mostrar mais comentários

    Conseguiu tocar?

    10 Tocaram 3 Ainda não

    Grave um vídeo tocando Reaching Horizons e mande pra gente!

    00:00 / 00:00
    outros vídeos desta música
    repetir qualidade Automático
    Outros vídeos desta música
    00:00 / 00:00
    Automático
    Capítulos
    • Abertura
    • Tocando a Música
    • Dicas Iniciais
    • Acordes Introdução 1
    • Tocando Introdução 1
    • Ensinando Introdução 1
    • Introdução 1 - Parte 1 de 4
    • Introdução 1 - Parte 2 de 4
    • Introdução 1 - Parte 3 de 4
    • Introdução 1 - Parte 4 de 4
    • Acordes Introdução 2
    • Tocando Introdução 2
    • Ensinando Introdução 2
    • Introdução 2 - Parte 1 de 4
    • Introdução 2 - Parte 2 de 4
    • Introdução 2 - Parte 3 de 4
    • Introdução 2 - Parte 4 de 4
    • Acordes Primeira Estrofe
    • Tocando Primeira Estrofe
    • Primeira Estrofe - Parte 1 de 2
    • Primeira Estrofe - Parte 2 de 2
    • Acordes Segunda Estrofe
    • Tocando Segunda Estrofe
    • Ensinando Segunda Estrofe
    • Segunda Estrofe - Parte 1 de 6
    • Segunda Estrofe - Parte 2 de 6
    • Segunda Estrofe - Parte 3 de 6
    • Segunda Estrofe - Parte 4 de 6
    • Segunda Estrofe - Parte 5 de 6
    • Segunda Estrofe - Parte 6 de 6
    • Acordes Terceira Estrofe
    • Tocando Terceira Estrofe
    • Terceira Estrofe - Parte 1 de 10
    • Terceira Estrofe - Parte 2 de 10
    • Terceira Estrofe - Parte 3 de 10
    • Terceira Estrofe - Parte 4 de 10
    • Terceira Estrofe - Parte 5 de 10
    • Terceira Estrofe - Parte 6 de 10
    • Terceira Estrofe - Parte 7 de 10
    • Terceira Estrofe - Parte 8 de 10
    • Terceira Estrofe - Parte 9 de 10
    • Terceira Estrofe - Parte 10 de 10
    • Tocando Refrão 1
    • Refrão 1 - Parte 1 de 8
    • Refrão 1 - Parte 2 de 8
    • Refrão 1 - Parte 3 de 8
    • Refrão 1 - Parte 4 de 8
    • Refrão 1 - Parte 5 de 8
    • Refrão 1 - Parte 6 de 8
    • Refrão 1 - Parte 7 de 8
    • Refrão 1 - Parte 8 de 8
    • Tocando Refrão 2
    • Refrão 2 - Parte 2 de 6
    • Refrão 2 - Parte 3 de 6
    • Refrão 2 - Parte 4 de 6
    • Refrão 2 - Parte 5 de 6
    • Refrão 2 - Parte 6 de 6
    • Tocando Final
    • Ensinando Final
    • Encerramento

    Cifra Club Pro

    Aproveite o Cifra Club com benefícios exclusivos e sem anúncios
    Cifra Club Pro
    Aproveite o Cifra Club com benefícios exclusivos e sem anúncios
    OK