Cifra Club

Aprenda

Rebirth

Angra

Cifra: Original (violão e guitarra)
tom: C
(intro)

      Am          D/F# G         Em     F           G     Am
E |--------0-----------------------------------------------------0--------|
B |------1---3--------------1-0--------------------------------1-----1----|
G |----2------------2-----0----------0---------2-0-----0------2----2---2--|
D |---------------0-----0----------2--------3--------0------2-------------|
A |--0-----------------------------------3----------------0---------------|
E |-------------2-----3----------0-----1-----------3----------------------|  (repete)

     Dm              Bb/D               C                Am
E |-------1-----0----------0------1----0-----------------------------0----|
B |-----3---3-------3--------3-----------1----3-----1----1-----1----------|
G |---2-------2---0---3--------3----3------0----0-----0----2-----2------0-|
D |-0-------------------0------------------------------------2-----2------|
A |------------------------------------3----------3-----------------------|
E |-----------------------------------------------------------------------|

     Dm                                 C                  G
E |-1------------0---------0------1----0------------------------3------|
B |---3---3----------3--------3-----------1----3-----1--------3--------|
G |-----2---2------0---3--------3----3------0----0----------0----------|  (fim da primeira
D |-0---------0----------0---------------------------------------------|       parte)
A |------------------------------------3-----------3---3--2------------|
E |--------------------------------------------------------------------|

(início da voz)

    C7M/A                             Dmadd9
E |----------0---------------0----------------5---------------5----------|
B |--------8-----8---------8-----8----------6-----6---------6-----6------|
G |------5-----5---5-----5-----5---5------9-----9---9-----9-----9---9----|
D |----9---------------9----------------7---------------7----------------|
A |--0---------------0----------------5---------------5------------------|
E |----------------------------------------------------------------------|

     Gadd9                             Cadd9           E7
E |----------3---------------3----------------0-----------------0--------|
B |--------0-----0---------0-----0----------3-----3---------3-------3----|
G |------2-----2---2-----2-----2---2------0-----0---0-----1---1---1------|
D |----0---------------0----------------2---------------2----------------|
A |-----------------------------------3---------------0------------------|
E |--3---------------3---------------------------------------------------|

     C7M/A                             Dadd9
E |----------0---------------0----------------0---------------0----------|
B |--------8-----8---------8-----8----------7-----7---------7-----7------|
G |------5-----5---5-----5-----5---5------7-----7---7-----7-----7---7----|
D |----9---------------9----------------7---------------7----------------|
A |--0---------------0----------------5---------------5------------------|
E |----------------------------------------------------------------------|

      F7M                              Amadd9
E |----------0---------------0----------------0---------------0----------|
B |--------6-----6---------6-----6----------0-----0---------0-----0------|
G |------5-----5---5-----5-----5---5------5-----5---5-----5-----5---5----|
D |----7---------------7----------------7---------------7----------------|
A |--8---------------8----------------0---------------0------------------|
E |----------------------------------------------------------------------|

  recalling...
E |----------------------------------------------------------------------|
B |------5---5---3--------6---6---5--------5---5---3--------0---0---1----|
G |------5---5---4--------7---7---5--------5---5---4--------1---1---2----|  (2x)
D |----7---7---7---5----9---9---9---7----7---7---7---5----2---2---2---2--|
A |--0----------------0----------------0----------------0----------------|
E |----------------------------------------------------------------------|

Am                      Dm
Cooling breeze from a summer day
G                        C      E7
Hearing echoes from your heart
Am                    D
Learning how to recompose the words
F   G         Am
Let time just fly

Am                        Dm
Joyfull sea-gulls roaming on the shore
G                      C      E7
Not a single note will sound
Am                     D
Raise my head after I dry my face
F   G         Am
Let time just fly
Am          Dm
Recalling, retreating
Am         E7
Returning, retrieving
Am         Dm
A small talk your missing
Am         Em           F    G
More clever but older now

(início instrumental)

 Am          Dm
A leader, a learner
 Am     Em
A lawful beginer
 Am           A7
A lodger of lunacy
 Dm        G
So lucid in a jungle
 C         E7
A helper, a sinner
 F             G          Am
A scarecroow's agonyzing smile
 F             F#
Oh! Minutes go round and round
          C#
Inside my head
 D                D#
Oh! My chest will now explode
        B
Falling into pieces          2X
 E                 A       (C# B)     E F  E F
Rain breaks on the ground-blood!

C#  B C#   C# B C#    E F  E F
One minute forever
C# B  C#  C# B  C#    E F  E F
A  sinner regreting

 A               G     F   G A  G
My vulgar misery ends

F              G    Am             G
Ride the winds of a brand new day
F                  G   Am     G
High where mountain's stand
F             C   Dm
Found my hope and pride again

  C           E7    (A G/F# G E F G A) (2x)
Rebirth of a man   (intro)

(base solo - 1ª parte) (B  G F# E  G A D B) (3x)  B G F# E  G F# G
(2ª parte) A G/F# G E F G A (2x)
(3ª parte) D C F E D C G  A

 G      F              G    Am              G
(And I) ride the winds of a brand new day
F                  G   Am     G
High where mountain's stand
F             C   Dm
Found my hope and pride again
 C            E7
Rebirth of a man    (1ª parte da intro)
 F   G    Am
Time to fly...
Composição de Pedro Henrique Loureiro / Rafael Bittencourt
Colaboração e revisão:
  • Walter Sassaki
22.290 exibições
    • ½ Tom
    • A
    • Bb
    • B
    • C
    • Db
    • D
    • Eb
    • E
    • F
    • F#
    • G
    • Ab
  • Adicionar à lista

    0 comentários

    Ver todos os comentários
    00:00 / 00:00
    outros vídeos desta música
    repetir qualidade Automático
    Outros vídeos desta música
    00:00 / 00:00
    Automático
    Capítulos
    • Tocando a música
    • Dicas iniciais
    • Acordes Introdução
    • Tocando Introdução
    • Introdução - Parte 1 de 5
    • Introdução - Parte 2 de 5
    • Introdução - Parte 3 de 5
    • Introdução - Parte 4 de 5
    • Introdução - Parte 5 de 5
    • Acordes Primeira Parte
    • Tocando Primeira Parte
    • Primeira Parte - Parte 1 de 7
    • Primeira Parte - Parte 2 de 7
    • Primeira Parte - Parte 3 de 7
    • Primeira Parte - Parte 4 de 7
    • Primeira Parte - Parte 5 de 7
    • Primeira Parte - Parte 6 de 7
    • Primeira Parte - Parte 7 de 7
    • Acordes Segunda Parte (Primeira Estrofe)
    • Tocando Segunda Parte (Primeira Estrofe)
    • Segunda Parte (Primeira Estrofe) - 1 de 3
    • Segunda Parte (Primeira Estrofe) - 2 de 3
    • Segunda Parte (Primeira Estrofe) - 3 de 3
    • Acordes Segunda Parte (Segunda Estrofe)
    • Tocando Segunda Parte ( Segunda Estrofe)
    • Segunda Parte ( Segunda Estrofe) - 1 de 7
    • Segunda Parte ( Segunda Estrofe) - 2 de 7
    • Segunda Parte ( Segunda Estrofe) - 3 de 7
    • Segunda Parte ( Segunda Estrofe) - 4 de 7
    • Segunda Parte ( Segunda Estrofe) - 5 de 7
    • Segunda Parte ( Segunda Estrofe) - 6 de 7
    • Segunda Parte ( Segunda Estrofe) - 7 de 7
    • Acordes Terceira Parte
    • Tocando Terceira Parte
    • Terceira Parte - Parte 1 de 8
    • Terceira Parte - Parte 2 de 8
    • Terceira Parte - Parte 3 de 8
    • Terceira Parte - Parte 4 de 8
    • Terceira Parte - Parte 5 de 8
    • Terceira Parte - Parte 6 de 8
    • Terceira Parte - Parte 7 de 8
    • Terceira Parte - Parte 8 de 8
    • Acordes Quarta Parte
    • Tocando Quarta Parte
    • Quarta Parte - Parte 1 de 3
    • Quarta Parte - Parte 2 de 3
    • Quarta Parte - Parte 3 de 3
    • Ritmo Quarta Parte
    • Acordes Refrão
    • Tocando Refrão
    • Ritmo Refrão
    • Dicas Finais
    • Tocando Refrão
    • Tocando Dedilhado Final
    • Final - Parte 1 de 2
    • Final - Parte 2 de 2
    • Encerramento

    Cifra Club Pro

    Aproveite o Cifra Club com benefícios exclusivos e sem anúncios
    Cifra Club Pro
    Aproveite o Cifra Club com benefícios exclusivos e sem anúncios
    OK