Cifra Club

Aprenda

Renaissance

Angra

Cifra: Principal (violão e guitarra)
Tom: C#
afinação: E A D G B E
tempo: 6/8

começa ~ 4:00 do começo da música "The Lasting Child - Renaissance".

1a PARTE (2x):

   |                       |                       |                
||-2-----------0---2-------2-------0---------------0-----------0----|
||---------3-------------------------------2---3-------2---3--------|
|*------------------------------------------------------------------|
|*------------------------------------------------------------------|
||-2---------------2-------1---------------1-------0----------------|
||------------------------------------------------------------------|

  2       3       2       3               3   4       1   2
  1               1       1               1
************************************************************************

          |                       |                       |
|-2----------------------------------------------------------------|
|-----3---0-------5---3---2---0---0---------------0-------2--------|
|-----------------------------------------0---2---------------3----|
|------------------------------------------------------------------|
|------------------------------------------------------------------|
|---------4-----------------------3-----------------------2--------|

  1   2          4    2   1                   1           2   3
          3                       2                       1
************************************************************************

                  |                       |                       
|------------------------------------------------------------------||
|-0---2---3---2---0------------------------------------------------||
|------------------------------------------------------------------*|
|-------------------------4---5---4---------------4---5---4--------*|
|-----------------2------------------------------------------------||
|-----------------------------------------2------------------------||

     2    3   2           3   4   3               3   4   3
                  1                       1
************************************************************************


2a PARTE (Toque e repita de novo e de novo...):

                           II======================
   |                       |                       |                
||-------------2-----------------------5-----------------------2----|
||---------3-------3---------------2-------2---------------3--------|
|*-----2---------------2-------2---------------2-------0------------|
|*-0----------------------------------------------------------------|
||-------------------------4-----------------------3----------------|
||------------------------------------------------------------------|

      1   3   2   3   1       1   1   4   1   1           3   1
                          3                       2
************************************************************************

                                  I=======================
          |                       |                       |
|---------------------3-----------------------1--------------------|
|-3---------------3-------3---------------3-------3----------------|
|-----0-------0---------------0-------3---------------3-------2----|
|------------------------------------------------------------------|
|---------2-----------------------1-----------------------0--------|
|------------------------------------------------------------------|

  3               3   4   3       1   3   4   1   4   3       2
          1
************************************************************************

 CI============
                  |                       |                       
|-----1------------------------------------------------------------|
|-1-------1---------------0-------0---------------2-------2--------|
|-------------2-----------0-------0---------------2-------2--------|
|---------------------0-------0---------------2-------2------------|
|-----------------------------------------0------------------------|
|-----------------3------------------------------------------------|

  1   1   1   2                                   4       4
                  2                           2   3   2   3
************************************************************************

  V===============================================
  |                       |                       |                
|-------------5-----------------------8----------------------------|
|---------6-------6---------------5-------5-------------------0----|
|-----5---------------5-------5---------------5-----------0--------|
|-----------------------------------------------------0------------|
|-8-----------------------7----------------------------------------|
|-------------------------------------------------0----------------|

      1   2   1   2           1   1   4   1   1
  4                       3
************************************************************************

          II======================
          |                       |                       |
|-3-------------------2-----------------------2--------------------|
|-----0-----------3-------3---------------3-------3----------------|
|-------------4---------------4-------2---------------2-------2----|
|---------------------------------0--------------------------------|
|---------2-----------------------------------------------0--------|
|------------------------------------------------------------------|

  3           3   2   1   2   3       1   3   2   3   1       2
          1
************************************************************************

                  |                       |                       
|-----0------------------------------------------------------------||
|-2-------2---------------4-------4---------------4-------4--------||
|-------------2-----------4-------4---------------4-------4--------*|
|---------------------4-------4---------------4-------4-------4----*|
|-----------------2-----------------------2------------------------||
|------------------------------------------------------------------||

  3      3   2    1   2   4   2   4       1   2   4   2   4   2
                          3       3               3       3



_______________________________________________________
Contribuição: Roberto Sonnino
Colaboração e revisão:
  • Roberto Sonnino
8.188 exibições
    • ½ Tom
    • A
    • Bb
    • B
    • C
    • Db
    • D
    • Eb
    • E
    • F
    • F#
    • G
    • Ab
  • Adicionar à lista

    0 comentários

    Mostrar mais comentários

    Conseguiu tocar?

    0 Tocaram 0 Ainda não

    Grave um vídeo tocando Renaissance e mande pra gente!

    00:00 / 00:00
    outros vídeos desta música
    repetir qualidade Automático
    Outros vídeos desta música
    00:00 / 00:00
    Automático

    Cifra Club Pro

    Aproveite o Cifra Club com benefícios exclusivos e sem anúncios
    Cifra Club Pro
    Aproveite o Cifra Club com benefícios exclusivos e sem anúncios
    OK