Enviar cifraEntrar

Running Alone

Angra

Cifra: Principal
exibições 30.403
Tom: D
coro: (Bb F Gm Eb C Gm D Bb Eb C Gm Bb F)2x
When the brave fought
On the land of freedom for the men
Now the bells of hope are ringing
Angels cry again

intro: Kiko loureiro


e|---------------------14~--15------15-18-17-----22~--|-13-12-13-10----------------10
B|-11------11-15-13-----------16--16--------19--------|------------11------------11--
G|---12--12--------14-----------17------------19------|--------------10--------10----
D|-----12------------14-------------------------------|----------------12-10-12------
A|----------------------------------------------------|------------------------------
E|----------------------------------------------------|------------------------------


e|-13-12-13-10----------------10-13-10----12-10----13-12-13-8---------------8-13-12-13
B|------------11------------11--------11-------11------------10-8-------8-10----------
G|--------------10--------10------------10-------10--------------10-9-10--------------
D|----------------12-10-12------------------------------------------------------------
A|------------------------------------------------------------------------------------
E|------------------------------------------------------------------------------------


e|-8---------------8-12-8----13-8----15-14-15-10------10-15-14-15-10------10
B|--10-8-------8-10------10-8----10-8-----------11--11--------------11--11--
G|------10-9-10-----------------------------------12------------------12----
D|--------------------------------------------------------------------------
A|--------------------------------------------------------------------------
E|--------------------------------------------------------------------------


e|-15-14-13-12-11--------10--------------------------------------------------------|
B|---------------14-13-12--14-13-12-11-14-13-11---10~--11~--15~--14~--15~--17--17b-|
G|---------------------------------------------------------------------------------|
D|---------------------------------------------------------------------------------|
A|---------------------------------------------------------------------------------|
E|---------------------------------------------------------------------------------|


intro: Rafael Bittencourt


e|-10------10-15-14----17~--11------11-15-14----17~--|-18-17-18-13---------------13-18
B|---11--11--------15---------13--13--------15-------|------------15-----------15-----
G|-----12------------14---------12------------14-----|--------------15--------15------
D|---------------------------------------------------|----------------15-14-15--------
A|---------------------------------------------------|--------------------------------
E|---------------------------------------------------|--------------------------------


e|-17-18-13----------------13-18-13----17-13----17-15-17-13-----------------13-17-15-17
B|---------15------------15--------15-------15-------------13--------------13----------
G|-----------15--------15------------14-------15-------------15-14-12-14-15------------
D|-------------15-14-15----------------------------------------------------------------
A|-------------------------------------------------------------------------------------
E|-------------------------------------------------------------------------------------


e|------------------13-17-13----18-17-18-15-------15-18-17-18-15-----15-
B|-13--------------13-------13--------------15--15--------------15--15--
G|---15-14-12-14-15-----------15--------------15------------------15----
D|----------------------------------------------------------------------
A|----------------------------------------------------------------------
E|----------------------------------------------------------------------


e|-18-17-16-15-14--------15--------------------------------------------------------|
B|---------------18-17-16--19-18-17-16-19-18-16---13~--15~--18~--17~--18~--20--20b-|
G|---------------------------------------------------------------------------------|
D|---------------------------------------------------------------------------------|
A|---------------------------------------------------------------------------------|
E|---------------------------------------------------------------------------------|


e|---------------------------------------------------------------------------------|
B|---------------------------------------------------------------------------------|
G|---------------------------------------------------------------------------------|
D|7---------7---------9--------10------------7---------7-5-------------------------|3X
A|5-5-5-5-5-5-5-5-5-5-7-7-7-7-7-8-8-8-8-8-10-5-5-5-5-5-5-3-3-3-3-3-3-5---------3-5-|
E|----------------------------------------8--------------------------3-3-3-3-3-1-3-|  

 na 3a vez entra o solo
   D5   E5  F5  C5  D5  C5  G5  F5  G5 D5     E5  F5  C5  Bb5    Gm5    E5  G5

e|-------------------------------------------------------------------------------|
B|-------------------------------------------------------------------------------|
G|10-10-12--14--9-10-10--9--7---5---7--10-10--12--14--9--15--14--12-10--9--------|
D|-------------------------------------------------------------------------------|
A|8--8--10--12--7--8--8--7--5---3---5---8--8--10--12--7--13--12--10--8--7--5-5-5-|
E|-------------------------------------------------------------------------3-3-3-|


D5                         C5
The goddess of wind was mad, oh no!
               A5   
Spreading the fire
D5                           C5
Rushing our destiny (and) from now
           A5
Dividing us all.
D5              Bb5 
Visions of steady land
F5            G5
Cheering the sight
D        Bb5                   D# D
Orders to wait until the night

Tocar 1 vez esse riff, acompanhando os acordes: G5, Eb5, Bb5  e F5,
na parte q canta: "Answer me, what happned..." 

A|-----------------6-6-6-6-6-6-6-6-1-1-1-1-1-1-1-1-----------------|
E|-3-3-3-3-3-3-3-3---------------------------------1-1-1-1-1-1-1-1-|


Na 2ª vez, tocar este: (Repare q nessa 2ª vez o riff vai
até o trecho da 1ª casa da corda "Lá")


A|-----------------6-6-6-6-6-6-6-6-1-1-1-1-1-1-1-1-|
E|-3-3-3-3-3-3-3-3---------------------------------|


G5        Eb5
Answer me,
     Bb5             F5
What happned to your life?
G5     Eb5              Bb5   F
Answer me, what do you hide? 


e|--------------------------------------------------------------------|
B|--------------------------------------------------------------------|
G|10-10-12--14--9--10-10-9--7--5--7-10--10-12--14--9------------------|
D|--------------------------------------------------------------------|
A|8--8--10--12--7--8--8--7--5--3--5--8--8--10--12--7-------4~---7-4---|
E|----------------------------------------------------6~-3~---5~----5-|



D5                               C5
The storm made us angry, I don't know!
              A5
Spreading the fear
D5                           C5
Old friends like enemys, be strong!
                A5
And hide all your tears
D5            Bb5
Revolting the high command
F5           G5
Don't let it drown
D5           Bb5            G5       D#  D
Captain took off before the dawn.

G5     Eb5
Answer me,
     Bb5               F5
What happened to your life?
G5      Eb5             Bb5  F
Answer me, what do you hide?
G5           Eb5
Can't you see
   Bb5             F5
Salvation without fight?
G5              Eb5
Can't you see it?
  Bb5            F5
That you are blind

 
 C5       E5  
Under the sun
      Gm       D5 D7+
In a solitary world
      D5 C5   Bb5 G5  
I am running alone
 C5          E5
Scars on my face
      Gm                 D5 D7+
Weary hands from digging dirt
      D5  C5 B5  E5
I was dying all alone
    

e|--------------------------------------------------------------|
B|--------------------------------------------------------------|
G|--------------------------------------------------------------|
D|2----7-7-7-7-7-7-7----7~-9-9-9-9-9----------------------------|
A|0----5-5-5-5-5-5-5-7-8---7-7-7-7-7-10-9---5-5-5-5-5-5-5-5-7~~7|
E|---------------------------------------10-3-3-3-3-3-3-3-3-5~~5|


SOLO 1 


e|----------------------------------------------------------------------------------|
B|----------------------------------------------------------------------------------|
G|----------------------------------------------------------------------------------|
D|-----------------------------------7h9p7------------------------------------------|
A|---7----9---9h10p9p7h9--------7---9-----9-5/7------7------9-----9h10p9p7h9--------|
E|0-0--0-0-0-0----------10-9-7-7-7-7------------10-10--10-10-10-10----------10-10-10|

  * *  * * * *               * * * *            *   *   *  *  *  *           *  *  * 

e|----------------------------------------------------------------------------------|
B|----------------------------------------------------------------------------------|
G|----------------------------------------------------------------------------------|2x
D|-------------7h9p7--------------------------------------------------7h9p7--7------|
A|-----7-----9-------9-5/7------7-----9--9h10p9p7h9---------9----10--------10-10-9-7|
E|10-10-10-10---------------8-8---8-8--------------10-10-8-8--8-8--8-8--------------|  

   *  *  *  *               * *   * *               *  * * *  * *  * *
no final da 1a e 2a vez faz esse solo


G|11~11-9/12-11-97|
D|-----------------|
A|9~~9--7/10-9--75|  


 na 2a vez entra a 2a guit. junto com a do solo 1


e|--------------------------------------------------------------------------------|
B|--------------------------------------------------------------------------------|
G|----------------------------------------------11h12p11-9-5/7--------------------|
D|----------7---7h9p7---9-------------------7--------------------5---7---7h9p7p5h7|   
A|7-7-10-7-7-7-7-----10--10-9-5/7-7-7-10-7-7-7-7--------------5-5-5-5-5-5---------|
E|--------------------------------------------------------------------------------|

 

e|----------------------------------------------------------------------------------|
B|----------------------------------------------------------------------------------|
G|----------------------------------------------------------------------------------|
D|5--------5----7----11h12p11-9-5/7--------------7h9p7--7---------------------------|
A|--9-7-5-5--5-5--5-5------------------10---12--------10--10-9-7---10---12--11h12p11|
E|----------------------------------8-8--8-8--8-8---------------8-8--8-8--8-8-------|


e|-----------|
B|-----------|
G|-----------|
D|9-11-9-----|
A|------12-10|
E|-----------|


SOLO 2
  F#5      B5  A5  G5      E5        F#5       D5           D/C#         C5

e|--------------------------------------------------------------------------------|
B|--------------------------------------------------------------------------------|
G|6~~/11-9-9-7-6-74~~11-9-12-11-9-7-11-11-12--11-11-11-11-14-14-12-11-9-12-11-9-9|
D|--------------------------------------------------------------------------------|
A|4~~/9--7-7-5-4-52~~9--7-10-9--7-5-9--9--10--9--9--9--9--12-12-10-9--7-10-9--7-7|
E|--------------------------------------------------------------------------------|

  B5    Bb5    F5      G5          A5

e|-----------------------------------------------|
B|-----------------------------------------------|
G|7-6-7-10-10-14-14-9--12-12-7-7~~-14-14-14-15-14|
D|-----------------------------------------------|
A|5-4-5-8--8--12-12-7--10-10-5-5~~-12-12-12-13-12|
E|-----------------------------------------------|



C5   E5
Am running?
         Gm  D5 D7+
Where am I?
          D5           C5  Bb5  Gm
Where has everyone gone this time?
        C5   E5    Gm     D5 D7+
Left my future far behind
     D5              C5   Bb5    Gm
I am nothing but the sole survivor
Under the sun I still see this world burning
Scars on my face shows the eyes of a man running
  • 1
  • 2
  • 3
  • 4
  • 5
  • 6
  • 7
  • 8
  • 9
  • 10
  • 11
  • 12
    Acordes para:
      Composição: Rafael BittencourtColaboração e revisão:
      • Renan Achão

      0 comentários

        mostrar mais comentários

        Conseguiu tocar?

        0tocaram0ainda não

        Grave um vídeo tocando Running Alone e mande pra gente!

        00:00 / 00:00
        outros vídeos desta música
        repetirqualidadeautomática
        • automática
        Outro vídeos desta música
          00:00 / 00:00
          automática
          • automática
          Acordes para:violão e guitarra
          dificuldadeexibiçõescontribuições
          4 versões de Guitar Proformatodownloadscontribuição
          fecharplay/pause subir/descer velocidade
            Acordes para:violão e guitarra
            acordes
            fechar
            OK