Cifra Club

Aprenda

Spread Your Fire

Angra

Cifra: Principal (violão e guitarra)
Tom: C
Intro 
E|-----------------------------|-----------------------------|-------------------------------|
B|-----------------------------|-----------------------------|-------------------------------|
G|-----------------------------|--5-----------5-4-----2------|-------------------------------|
D|---7---------7--6-----7------|--2-----------2-2-----2------|--7---------7--6-------7-------|
A|---5-5-5-5-5-5--5---5-5--5-5-|--0-0-0-0-0-0-0-0-0-0-0-0-0--|--8-8-8-8-8-8--8---8-8-8--8-8--|
E|-----------------------------|-----------------------------|-------------------------------|


E|-----------------------------|------------------------------|------------------------------|
B|-----------------------------|------------------------------|------------------------------|
G|--5----------5--7--4---4-----|------------------------------|--5---------5-4-----2---------|
D|--5----------5--5--5---5-----|--7----------7--6------7------|--2---------2-2-----2---------|
A|--3--3-3-3-3-3--5--2---2-----|--5--5-5-5-5-5--5--5-5-5--5-5-|--0-0-0-0-0-0-0-0-0-0--0-0----|
E|----------------3------------|------------------------------|------------------------------|

             
          Guitarra 1 Kiko Loureiro                Guitarra 2  Rafael Bittencourt  [Nessa parte as 
    C        G       D       E                                               duas guitarras tocão juntas]
E|-------------------------------------------|    |--------------------------------------------|
B|------------------12---13-------------------|    |--------------------------------------------|
G|------12--14---12------------12--14--12--10-|    |-----------------12---14------------------------|
D|---14---------------------14----------------|    |------12--14--12-------------12--14--12---10-----|
A|--------------------------------------------|    |--15----------------------15---------------------|
E|--------------------------------------------|    |--------------------------------------------|


       F                                                 D
E|----------------------------------------------------|--------------------------------------------------|
B|----------------------------------------------------|----------------------10-----10-12-13-12-10-8-6---|
G|----------------------------------9-------9--10-----|--9--10-12--9--10--12-----10----------------------|
D|-------9--10-----9-10-12-9-10-12----10-12-------12--|--------------------------------------------------|
A|---12--------12-------------------------------------|--------------------------------------------------|
E|----------------------------------------------------|--------------------------------------------------|

            Guitarra 1 Kiko                             Guitarra 2  Rafael
     C       G      D         E                   C      G      D      E
E|--------------------------------------------|    |--------------------------------------------|
B|------------------12---13-------------------|    |--------------------------------------------|
G|------12--14---12------------12--14--12--10-|    |---------------12---14------------------------|
D|---14---------------------14----------------|    |-----12--14--12-------------12--14--12---10-----|
A|--------------------------------------------|    |--15--------------------15---------------------|
E|----------------------------------------|    |--------------------------------------------|


      F                                D                                        D                      
E|-------------------------------------------------|--------------------------------------------------
B|-------------------------------------------------|--------------------------------------------------
G|-------------10-12-14-10-12-10-------12-14-16-12-|--14-12-------14-16-17-14-16-14-------16-17-19-16-
D|-----9-10----------------------12-10-------------|--------15-14-------------------16-14-------------
A|--12------12-------------------------------------|--------------------------------------------------
E|-------------------------------------------------|--------------------------------------------------

              D C#         
      |-10~--|-------------|
      |------|-------------|
      |------|-7--7--7--6--|
      |------|-------------|
      |------|-------------|
      |------|-------------|
Verse
      Woke up                     to life                            not long ago    
        D                             D/C#                                D
E|------------------------------|-------------------------------|------------------------------|
B|------------------------------|-------------------------------|------------------------------|
G|------------------------------|-------------------------------|------------------------------|
D|--7---------7---------7-------|--7----------7---------7-------|--7---------7---------7-------|
A--5-5-5-5-5-5-5-5-5-5-5--5-5--|--4-4-4-4-4--4-4-4-4-4-4--4-4--|--5-5-5-5-5-5-5-5-5-5-5--5-5--|
E|------------------------------|-------------------------------|------------------------------|

   You think                      your mind is                        in control?
     C                                  Bb                             G
E|-------------------------------|------------------------------|------------------------------|
B|-------------------------------|------------------------------|------------------------------|
G|-------------------------------|------------------------------|------------------------------|
D|--5---------5----------5-------|--3---------3---------3-------|------------------------------|
A|--3-3-3-3-3-3--3-3-3-3-3--3-3--|--1-1-1-1-1-1-1-1-1-1-1--1-1--|--5---------5---------5-------|
E|-------------------------------|------------------------------|--3-3-3-3-3-3-3-3-3-3-3--3-3--|

    God will                        take it                           back someday 
   D                                D/C#                             D 
E|------------------------------|-------------------------------|------------------------------|
B|------------------------------|-------------------------------|------------------------------|
G|------------------------------|-------------------------------|------------------------------|
D|--7---------7---------7-------|--7----------7---------7-------|--7---------7---------7-------|
A--5-5-5-5-5-5-5-5-5-5-5--5-5--|--4-4-4-4-4--4-4-4-4-4-4--4-4--|--5-5-5-5-5-5-5-5-5-5-5--5-5--|
E|------------------------------|-------------------------------|------------------------------|

     It's not so                     hard to understand  It's not so hard to understand
       C                                Bb                           G
E|-------------------------------|------------------------------|------------------------------|
B|-------------------------------|------------------------------|------------------------------|
G|-------------------------------|------------------------------|------------------------------|
D|--5---------5----------5-------|--3---------3---------3-------|------------------------------|
A|--3-3-3-3-3-3--3-3-3-3-3--3-3--|--1-1-1-1-1-1-1-1-1-1-1--1-1--|--5---------5---------5-------|
E|-------------------------------|------------------------------|--3-3-3-3-3-3-3-3-3-3-3--3-3--|

Father Universe brings Love and Hate| Glorious -You'll lead the way.........
   G                 Refrao   C       F    C       D    A     Bb    F     Bb     C    F      C
E|---------------------------|-------|-----|------|-----|-----|-----|-----|-----|-----|-----|-----|
B|---------------------------|-------|-----|------|-----|-----|-----|-----|-----|-----|-----|-----|
G|---------------------------|--5----|-----|--5---|--7--|-----|-----|-----|-----|--5--|-----|--5--|
D|--5------------------------|--5----|--3--|--5---|--7--|--7--|--8--|--3--|--8--|--5--|--3--|--5--|
A|--5------------------------|--3----|--3--|--3---|--5--|--7--|--8--|--3--|--8--|--3--|--3--|--3--|
E|--3-3-3-3-3-3-3-3-3-3------|-------|--1--|------|-----|--5--|--6--|--1--|--6--|-----|--1--|-----|


  
   D/C#   D  C   Bb     D           D/C#

E|-----|-------------|-------------------|
B|-----|-------------|-------------------|
G|--6--|--7--5---3---|-------------------|
D|--7--|--7--5---3---|---7--7--7--7--7---|
A|--4--|--5--3---1---|---5--5--5--5--4---|
E|-----|-------------|-------------------|


E|-----------------------------|-----------------------------|-------------------------------|
B|-----------------------------|-----------------------------|-------------------------------|
G|-----------------------------|--5-----------5-4-----2------|-------------------------------|
D|---7---------7--6-----7------|--2-----------2-2-----2------|--7---------7--6-------7-------|
A|---5-5-5-5-5-5--5---5-5--5-5-|--0-0-0-0-0-0-0-0-0-0-0-0-0--|--8-8-8-8-8-8--8---8-8-8--8-8--|
E|-----------------------------|-----------------------------|-------------------------------|


E|-----------------------------|------------------------------|------------------------------|
B|-----------------------------|------------------------------|------------------------------|
G|--5----------5--7--4---4-----|------------------------------|--5---------5-4-----2---------|
D|--5----------5--5--5---5-----|--7----------7--6------7------|--2---------2-2-----2---------|
A|--3--3-3-3-3-3--5--2---2-----|--5--5-5-5-5-5--5--5-5-5--5-5-|--0-0-0-0-0-0-0-0-0-0--0-0----|
E|----------------3------------|------------------------------|------------------------------|


E|-------------|
B|-------------|
G|-------------|
D|---5---2-----|
A|---5---2-----|
E|---3 --0-----|



Verse
   Unleash                        the angel              of the Light
        D                             D/C#                                D
E|------------------------------|-------------------------------|------------------------------|
B|------------------------------|-------------------------------|------------------------------|
G|------------------------------|-------------------------------|------------------------------|
D|--7---------7---------7-------|--7----------7---------7-------|--7---------7---------7-------|
A--5-5-5-5-5-5-5-5-5-5-5--5-5--|--4-4-4-4-4--4-4-4-4-4-4--4-4--|--5-5-5-5-5-5-5-5-5-5-5--5-5--|
E|------------------------------|-------------------------------|------------------------------|

   Thank him                       for bringing us to life      Lucifer is just a name! 
     C                                  Bb                             G
E|-------------------------------|------------------------------|------------------------------|
B|-------------------------------|------------------------------|------------------------------|
G|-------------------------------|------------------------------|------------------------------|
D|--5---------5----------5-------|--3---------3---------3-------|------------------------------|
A|--3-3-3-3-3-3--3-3-3-3-3--3-3--|--1-1-1-1-1-1-1-1-1-1-1--1-1--|--5---------5---------5-------|
E|-------------------------------|------------------------------|--3-3-3-3-3-3-3-3-3-3-3--3-3--|

    We are                        the only                          ones to blame 
   D                                D/C#                             D 
E|------------------------------|-------------------------------|------------------------------|
B|------------------------------|-------------------------------|------------------------------|
G|------------------------------|-------------------------------|------------------------------|
D|--7---------7---------7-------|--7----------7---------7-------|--7---------7---------7-------|
A--5-5-5-5-5-5-5-5-5-5-5--5-5--|--4-4-4-4-4--4-4-4-4-4-4--4-4--|--5-5-5-5-5-5-5-5-5-5-5--5-5--|
E|------------------------------|-------------------------------|------------------------------|

  Just look around                I'm not insane!                Satan is a child of our God 
       C                                Bb                           G
E|-------------------------------|------------------------------|------------------------------|
B|-------------------------------|------------------------------|------------------------------|
G|-------------------------------|------------------------------|------------------------------|
D|--5---------5----------5-------|--3---------3---------3-------|------------------------------|
A|--3-3-3-3-3-3--3-3-3-3-3--3-3--|--1-1-1-1-1-1-1-1-1-1-1--1-1--|--5---------5---------5-------|
E|-------------------------------|------------------------------|--3-3-3-3-3-3-3-3-3-3-3--3-3--|

                                    Glorious - Don't be afraid
   G                 Refrao   C       F    C       D    A     Bb    F     Bb     C    F      C
E|---------------------------|------|-----|------|-----|-----|-----|-----|-----|-----|-----|-----|
B|---------------------------|------|-----|------|-----|-----|-----|-----|-----|-----|-----|-----|
G|---------------------------|--5---|-----|--5---|--7--|-----|-----|-----|-----|--5--|-----|--5--|
D|--5------------------------|--5---|--3--|--5---|--7--|--7--|--8--|--3--|--8--|--5--|--3--|--5--|
A|--5------------------------|--3---|--3--|--3---|--5--|--7--|--8--|--3--|--8--|--3--|--3--|--3--|
E|--3-3-3-3-3-3-3-3-3-3------|------|--1--|------|-----|--5--|--6--|--1--|--6--|-----|--1--|-----|


  C#      C    D  Bb
E|-----|-----------------|
B|-----|-----------------|
G|-----|---5---7---3-----|
D|-----|---5---7---3-----|
A|--4--|---3---5---1-----|
E|-----|-----------------|


..(Am)
Spread your fire 
Salve ara, salve victima 
 De passionis gloria 
Spread your fire 
Qua vita mortem pertulit 
Spread your fire 
Et morte vitam reddidit 
            Am, C, F, E.
Spread your fire...


|--------------------------------------------------------------------------|
|--------------------------------------------------------------------------|
|--------------------------------------------------------7-9-7-------------|
|---------7-9-7------7-------------7-9-7-------------7-9-------9-7---------|
|--7-9-10-------10-9---10-9-7-9-10-------10-9-7-9-10---------------10-9-7--|
|--------------------------------------------------------------------------|

|--------------------------------------------------------------------|
|--------------------------------------------------------------------|
|--------------------------------------------------7-9-7-------------|
|--------5-9-7-5---7-5---------5-9-7-5-----------5-------9-7---------|
|--5-7-9---------9-----9-7-5-7---------9-7-5-7-9-------------10-9-7--|
|--------------------------------------------------------------------|

|---------------------------------------------------------------------|
|---------------------------------------------------------------------|
|---------------------------------------------------------------------|
|--------5-7-5-----5-4-------4-5----------7-9-10-7-9-7------7---------|
|--3-5-7-------7-5-----7-5-7------------7--------------10-9---10-9-7--|
|---------------------------------5-7-8-------------------------------|

|---------------------------------------------------------------------------------|
|---------------------11-14-11---------------10p7-----------7p4-------------------|
|----------------9-12----------12-9---------------8-------------5-----------------|
|-----------8-11--------------------11-8-10---------10-7----------7-4---7-9-7-----|
|------7-10----------------------------------------------9------------6-------10--|
|--6-9----------------------------------------------------------------------------|

|----------------------------------------------------------------------------|
|-------------7-8---7-----------------10-9------9----------------------------|
|-----------9-----9---9-7----9-7-----------10-9---10-9-7-10-9-7------7-------|
|---------9---------------10-----10-9---------------------------10-9---10-9--|
|--7-9-10--------------------------------------------------------------------|
|----------------------------------------------------------------------------|

|------------------------------------------8p5---------------------------------|
|------------------------------12-10-9-10------7-------------------------------|
|---------------------10-9-8-9-------------------7-5-------------------7-9-11--|
|--9-7-6-7-12-10-9-10--------------------------------7-4------------10---------|
|--------------------------------------------------------7-5-7-9-10------------|
|------------------------------------------------------------------------------|

|--------------------------5-3-2-3---12-12-------11-11-------------------------------------|
|------------------5-3-2-3-----------------12-12-------12-12-13-13-------12-12-------------|
|----------5-4-3-4-------------------------------------------------14-14-------12-12-------|
|--7-5-4-5-----------------------------------------------------------------------------14--|
|------------------------------------------------------------------------------------------|
|------------------------------------------------------------------------------------------|
Composição de Edu Falaschi / Rafael Bittencourt
27.667 exibições
    • ½ Tom
    • A
    • Bb
    • B
    • C
    • Db
    • D
    • Eb
    • E
    • F
    • F#
    • G
    • Ab
  • Adicionar à lista

    0 comentários

    Mostrar mais comentários

    Conseguiu tocar?

    2 Tocaram 1 Ainda não

    Grave um vídeo tocando Spread Your Fire e mande pra gente!

    00:00 / 00:00
    outros vídeos desta música
    repetir qualidade Automático
    Outros vídeos desta música
    00:00 / 00:00
    Automático

    Cifra Club Pro

    Aproveite o Cifra Club com benefícios exclusivos e sem anúncios
    Cifra Club Pro
    Aproveite o Cifra Club com benefícios exclusivos e sem anúncios
    OK