Cifra Club

Aprenda

The Shadow Hunter

Angra

Cifra: Principal (violão e guitarra)
Tom: F#
(Intro Violão Nylon Rafael Bittencourt)
E|----------------0-----------------|--------------0------0--------------------|
B|----------2------------2----2-----|--------2---------------------------------|
G|------0-----0------0-----0-----0--|-----------0-----0------0--------4------0-|
D|---4----4-----4------4-----4------|---2h4--------4-----4--------2-------2----|
A|----------------------------------|------------------------------------------|
E|-2--------------------------------|-2-------------------------3------0----2h3|

E|----------------0----------0------------|-----------------0--------------------------|
B|----------2------------2------0---------|-----------2-------------0---------------0--|
G|------0-----0------0-----0--------------|------0-------0---------0-----2p0--------0--|
D|---4----4-----4------4------------------|----4---4-------4-----4------------2--4-----|
A|----------------------------------------|--------------------------------------------|
E|-2-------------------------------2h3h0--|-2------------------------------------------|

E|----------------0-----------------------|----------------0-----0---------------------|
B|----------2------------2-----5p0--------|--------2-----------------------------------|
G|------0-----0------0-----0--------------|-----------0------0-----0--------4------0---|
D|---4----4-----4------4------------------|----2h4------4------4--------2-------2------|
A|----------------------------------------|--------------------------------------------|
E|-2-------------------------------2h3h0--|-2-------------------------3------0----2h3--|

E|----------------0-----------------------|--------x-0-0-0-0-0-x-0-----------2-3--|
B|----------2------------2-----5p0--------|--------x-0-2-2-2-2-x-0---0-2-3-5------|
G|------0-----0------0-----0--------------|----0-0-x-0-0-0-0-0-x-0----------------|
D|---4----4-----4------4------------------|----4-4-x-4-4-4-4-4-x-2----------------|
A|----------------------------------------|----4-4-x-4-4-4-4-4-x-4----------------|
E|-2-------------------------------2h3h0--|-2--2-2-x-2-2-2-2-2-x-2----------------|

E|-5-------5------5--------5-----|-0---------0------0----------0-2---|
B|-----3-------3------3--------3-|------2---------2------2---0-------|
G|---0---0---0------0----0---0---|---0----------0-----0--------------|
D|-------------------------------|---------4---------------4---------|
A|-2-------------2---------------|-1----------------1----------------|
E|-------------------------------|-----------------------------------|

E|-3-----------2p0-----0--2----------0------|-----------2p0--2-------0--0-------|
B|--------0--2---------------------2-------3|--------0-------------2----------0-|
G|------0--------------4-------3---------0---|-----0----------3----3------4---3-|
D|--2-4-------------4-------4----------4----|---4--------------4--------4-4-----|
A|------------------------------------------|-----------------------------------|
E|-3----------------------2----------3------|--0--------0----2----------2-------|

E|------------2p0-----0/---|
B|--------0---------0------|
G|-----0----------3--------|
D|---4---------------------|
A|-------------------------|
E|0---------0--------------|

E|----------------0-----------------------|----------------0-----0---------------------|
B|----------2------------2-----5p0--------|--------2-----------------------------------|
G|------0-----0------0-----0--------------|-----------0------0-----0--------4------0---|
D|---4----4-----4------4------------------|----2h4------4------4--------2-------2------|
A|----------------------------------------|--------------------------------------------|
E|-2-------------------------------2h3h0--|-2-------------------------3------0----2h3--|

E|----------------0-----------------------|--------x-0-0-0-0-0-x-0-----------2-3--|
B|----------2------------2-----5p0--------|--------x-0-2-2-2-2-x-0---0-2-3-5------|
G|------0-----0------0-----0--------------|----0-0-x-0-0-0-0-0-x-0----------------|
D|---4----4-----4------4------------------|----4-4-x-4-4-4-4-4-x-2----------------|
A|----------------------------------------|----4-4-x-4-4-4-4-4-x-4----------------|
E|-2-------------------------------2h3h0--|-2--2-2-x-2-2-2-2-2-x-2----------------|

E|-5-------5------5--------5-----|-0---------0------0----------0-2---|
B|-----3-------3------3--------3-|------2---------2------2---0-------|
G|---0---0---0------0----0---0---|---0----------0-----0--------------|
D|-------------------------------|---------4---------------4---------|
A|-2-------------2---------------|-1----------------1----------------|
E|-------------------------------|-----------------------------------|

E|-3-----------2p0-----0--2----------0------|-----------2p0--2-------0--0-------|
B|--------0--2---------------------2-------3|--------0-------------2----------0-|
G|------0--------------4-------3---------0--|-----0----------3----3------4---3--|
D|--2-4-------------4-------4----------4----|---4--------------4--------4-4-----|
A|------------------------------------------|-----------------------------------|
E|-3----------------------2----------3------|--0--------0----2----------2-------|

E|------------2p0-----0/---|
B|--------0---------0------|
G|-----0----------3--------|
D|---4---------------------|
A|-------------------------|
E|0---------0--------------|

E|---------0-------0------------|-------x-0-2-2-2-2-x-0------|
B|------2----2-------0----------|---------0-2--2-2-2--0------|
G|---3---------0----------------|---0-0-x-0-0-0-0-0-x-0------|
D|------------------------------|---4-4-x-4-4-4-4-4-x-2------|
A|------------------------------|---4-4-x-4-4-4-4-4-x-4------|
E|-2----------------------2h3---|2--2-2-x-2-2-2-2-2-x-2------|

(Guitarra I,II.. Overdrive Guitar e Distortion Guitar)
E|---------|-----------|--------------|-----------|-------|
B|---------|-----------|--------------|-----------|-------|
G|-4-------|--4--------|--------------|-4---------|-7-----|
D|-4-------|-----------|-7---5--------|-4---------|-4-----|
A|-2-------|--6--------|-7---5--------|-2---------|-------|
E|---------|-----------|-5---3--------|-----------|-------|

E|---------|----------------|----------------|--------------|
B|---------|----------------|----------------|--------------|
G|---------|----------------|----------------|--------------|
D|-7---5---|--5--5----5--5--|-9---9----------|-5-5-----5--5-|
A|-7---5---|--3--3----3--3--|-7---7------5--7|-3-3-----3-3--|
E|-5---3---|----------------|-7---7------5--5|--------------|

E|---------|--------------|
B|---------|--------------|
G|---------|--------------|
D|-9---9---|---7--7---7---|
A|-7---7---|---5--5---5---|
E|-7---7---|--------------|

(Guitarra I Overdrive Guitar. Kiko Loureiro ”Solo”)
E|------------------------------------------------|-------------------------------|
B|------------------------------------------------|-------------------------------|
G|----------------------------------------------9-|--11--9--12-----14b---14-12h14-|
D|----------------------9-10-12---------9-10-12---|-------------------------------|
A|------------9--10--12---------9-10-12-----------|-------------------------------|
E|-8--10--12--------------------------------------|-------------------------------|

E|------------------------|-----------------------------------|------------------|
B|------------------------|-----------------------------------|--------15B-(15)--|
G|--11--12----------------|---9----11-9-12-------14--14-12h14-|11-12-------------|
D|-------------7/9--------|-9---------------------------------|------------------|
A|------------------------|-----------------------------------|------------------|
E|------------------------|-----------------------------------|------------------|

(Guitarra II Distortion Guitar Rafael Bittencourt ”Basé”)
E|---------------------------------|-------------------------------|
B|---------------------------------|-------------------------------|
G|---------------------------------|--11--9--12-----14b---14-12h14-|
D|---------------------------------|-------------------------------|
A|-3-3-3-3-3-3-3-3-3-3-3-3-3-3-3-3-|-------------------------------|
E|---------------------------------|-------------------------------|

E|---------|----------------|--------------------------|
B|---------|----------------|--------------------------|
G|-9-------|----------------|-9------------------------|
D|-9---5---|---------7--5---|-9---5-----------7--9--5--|
A|-7---7---|--4------5--3---|-7---7---4-------5--7--3--|
E|---------|--2-------------|---------2----------------|
(Fim Introdução )

(Violão Nylon Rafael Bittencourt)
Verso I
E|----------------|------------------|------------0----|
B|------------3---|--------------2---|-----------------|
G|---------4------|-----------2------|-----4----4------|                                                                                                                    D|---5------------|-----4------------|--------4--------|
A|------5---------|--------2---------|-2---------------|
E|-0--------------|-0----------------|-----------------|

E|----------------|------------------|------------0----|
B|------------3---|--------------2---|-----------------|
G|---------4------|-----------2------|-----4-----4-----|                                                                                                                    D|---5------------|-----4------------|-------4---------|
A|------5---------|--------2---------|-2---------------|
E|-0--------------|-0----------------|-----------------|
(Ponte)
E|-----------3---|---------------5---|----------0---|---------(3)--|
B|----------(1)--|--------------(3)--|----------2---|----------3---|
G|--------0------|---------2---------|------2-------|--------4-----|                                                                                                                  D|-----2---------|------4------------|---2----------|------5-------|
A|--3------------|--5----------------|-0------------|--------------|
E|---------------|-------------------|--------------|-3------------|

E|-------------3-|---------------5---|----------0---|--2---|
B|----------1----|--------------(3)--|----------2---|--4---|
G|-----0---------|---------2---------|------2-------|--4---|
D|-----2---------|------4------------|---2----------|--4---|
A|--3------------|--5----------------|-0------------|------|
E|---------------|-------------------|--------------|------|

(Refrão)

(Guitarra I Distortion Guitar. Rafael Bittencourt)
E|-------------|-----------|--------------|--------|
B|-------------|-----------|--------------|--------|
G|--------2--2-|--------4--|-------6------|--------|(2x)
D|--------2--2-|--------4--|-------7---7--|--5-----|
A|-2-2-2--0--0-|--2-2-2-2--|-2-2---4---7--|--5-----|
E|-------------|-----------|-----------5--|--3-----|

E|-------------|-----------|---------------|---------0-|
B|-------------|-----------|---------------|-------0---|
G|--------2--2-|-----------|---------------|-----------|
D|--------2--2-|-------6---|--------6---7--|-----------|
A|-2-2-2--4--4-|--2-2--4---|-4-4-4--4---5--|-----2-----|
E|-------------|-----------|------------5--|--0--------|

E|---------|---------------|
B|---------|---------------|
G|-5-------|---------5-----|
D|-5-------|--5------5-----|
A|-3-------|--4------3-----|
E|---------|--2------------|

(Guitarra II Overdrive Guitar. Kiko Loureiro)

E|-------------|-----------|--------------|--------|
B|-------------|-----------|--------------|--------|
G|--------2--2-|--------4--|-------6------|--------|
D|--------2--2-|--------4--|-------7---7--|--5-----|
A|-2-2-2--0--0-|--------2--|-------4---7--|--5-----|
E|-------------|-----------|-----------5--|--3-----|

E|------------|-----------|------|-------|
B|------------|-----------|------|-------|
G|--------4---|-------6---|------|-------|
D|--------4---|-------7---|---7--|--5----|
A|--------2---|-------4---|---7--|--5----|
E|------------|-----------|---5--|--3----|

E|------------|-----------|------|-------|-------|--------|
B|------------|-----------|------|-------|-------|--------|
G|--------4---|-------6---|------|-------|-5-----|--------|                                                                                                                                                                                                                                     D|--------4---|-------7---|---7--|----2--|-5-----|--4-----|
A|--------2---|-------4---|---7--|----2--|-3-----|--4-----|
E|------------|-----------|---5--|----0--|-------|--2-----|
(Violão Nylon Rafael Bittencourt)

E|----------------0------------------|--------------2h0----0--|
B|----------3------------------------|--------0----------3----|
G|------0-----0----------0------0----|-----0------------------|                                                                                                                    D|---4----4-----------4-------4---4--|---4--------------------|
A|-----------------------------------|------------------------|
E|-3----------------3------3---------|-0------------0---------|

E|-2---------------0----------------------|------------------0------------------------|
B|----------2------------2----0-----------|-----------2-------------2--------------3--|
G|------0-----0------0-----0--------------|------0-------0------0---------------0-----|                                                                                                                    D|---4----4-----4------4------------------|----4---4--------4-----4----------4--------|
A|----------------------------------------|-------------------------------------------|
E|-2-------------------------------2h3h0--|-2-----------------------------2-----------|

E|----------------0------------------|--------------2h0----0--|
B|----------3------------------------|--------0----------3----|
G|------0-----0----------0------0----|-----0------------------|                                                                                                                    D|---4----4-----------4-------4---4--|---4--------------------|
A|-----------------------------------|------------------------|
E|-3----------------3------3---------|-0------------0---------|

E|-2---------------0----------------------|------------------0---------------------|
B|----------2------------2----0-----------|-----------2-------------2----0---------|
G|------0-----0------0-----0--------------|------0-------0------0------0-----------|                                                                                                                    D|---4----4-----4------4------------------|----4---4--------4-----4----------------|
A|----------------------------------------|----------------------------------------|
E|-2-------------------------------2h3h0--|-2-----------------------------2h3h0----|

E|--------x-0-0-0-0-0-x-0---------|
B|--------x-0-2-2-2-2-x-0---------|
G|----0-0-x-0-0-0-0-0-x-0---------|                                                                                                                    D|----4-4-x-4-4-4-4-4-x-2---------|
A|----4-4-x-4-4-4-4-4-x-4---------|
E|-2--2-2-x-2-2-2-2-2-x-2---------|

(Inteulude) (Violão Nylon)

E|-----------------------5----------------------------|
B|---------3-------3--------------3-------------------|
G|------4-------------4------------------4----4-------|                                                                                                                    D|--------------4--------------4------------3---------|
A|-2---------2-------------2----------2---------------|
E|----------------------------------------------------|

E|---------2--------------------2-0------------------------5-|
B|-------0---0------------3---------3----------3------3------|
G|----2---------2-------2---2---------2------4---4-------4---|                                                                                                                    D|----------------2---0--------------------5-------5---------|
A|--4---------------4----------------------------------------|
E|---------------------------------------3-------------------|

E|---------------------------------------5------0--------------|
B|---------3---------------3-------3----------3---0---2--------|
G|------4----4----4------0---0--------4-------------0----2-----|                                                                                                                  D|----5---------5------2-------2-------------------------------|
A|------------------------------------------0------------------|
E|--3---------------0------------------------------------------|

E|--------------------------5----------------------------2----------|
B|----------3---------3------------3--------3----------0---0--------|
G|-------4--------4------4----------------4---4------2--------2-----|                                                                                                                   D|-------------------------------4------------------------------2---|
A|--2---------2---------------2----------2--------4---------------4-|
E|------------------------------------------------------------------|

E|------------0--2-----------------------5-----------------------------------5------0-----------|
B|--------3--------3-----------3-----3-----------3---------------3-----3--------3-----0----2----|
G|-----2----2--------2-------4---4----4--------4---4---4-------0---0----4----------------0---2--|                                                                                                                   D|---0---------------------5-------5---------5-------5------2--------2--------------------------|
A|-----------------------------------------------------------------------------0----------------|
E|-----------------------3-----------------3--------------0-------------------------------------|

(Guitarra I Distortion Guitar. Rafael Bittencourt)
E|------------|-----------------------3-------------------|
B|------------|-------------------------3-----------------|
G|--------2---|-----------6---------------4---------------|                                                                                                                                                                                                                                    D|--------2---|-----------7---7----5------------2----7----|
A|--------4---|--2-2------4---7----5------------2----7----|
E|------------|---------------5----3------------0----5----|

E|-------|-----------|---------------|-----3-----|
B|-------|-----------|---------------|-------3---|
G|---2---|-----------|------------7--|---------4-|                                                                                                                                                                                                                                     D|---2---|-------6---|--------6---7--|-5---------|
A|---4---|--2-2--4---|-4-4-4--4---5--|-5---------|
E|-------|-----------|---------------|-3---------|

E|---------|---------------|
B|---------|---------------|
G|-5-------|---------5-----|                                                                                                                                                                                                                                   D|-5-------|--5------5-----|
A|-3-------|--4------3-----|
E|---------|--2------------|

(Guitarra II Overdrive Guitar. Kiko Loureiro)

E|----------------|-----------|------|-------|------------|
B|----------------|-----------|------|-------|------------|
G|--------4-------|-------6---|------|-------|------------|(2x)                                                                                                                                                                                                                                     D|--------4-------|-------7---|---7--|--5----|---2-----7--|
A|--------2--2--2-|-------4---|---7--|--5----|---2-----7--|
E|----------------|-----------|---5--|--3----|---0-----5--|

(Ponte ou Verso II) Guitarra II e I

E|-----------3---|---------------5---|----------0---|---------(3)--|
B|----------(1)--|--------------(3)--|----------2---|----------3---|
G|--------0------|---------2---------|------2-------|--------4-----|                                                                                                                  D|-----2---------|------4------------|---2----------|------5-------|
A|--3------------|--5----------------|-0------------|--------------|
E|---------------|-------------------|--------------|-3------------|

E|-------------3-|---------------5---|----------0---|--2---|
B|----------1----|--------------(3)--|----------2---|--4---|
G|-----0---------|---------2---------|------2-------|--4---|                                                                                                                   D|-----2---------|------4------------|---2----------|--4---|
A|--3------------|--5----------------|-0------------|------|
E|---------------|-------------------|--------------|------|


(Refrão)

(Guitarra I Distortion Guitar. Rafael Bittencourt)

E|-------------|-----------|----------|
B|-------------|-----------|----------|
G|-------------|-----------|-5--------| (2X)                                                                                                                                                                                                                                    D|-2-----------|--------4--|-5--------|
A|-2-----------|--------4--|-3--------|
E|-0-----------|--------2--|----------|

E|-------------|-----------|----------|
B|-------------|-----------|----------|
G|-------------|-----------|-4--------|                                                                                                                                                                                                                                     D|-2-----------|--------3--|-4--------|
A|-2-----------|--------3--|-2--------|
E|-0-----------|--------1--|----------|


(Guitarra II Overdrive Guitar. Kiko Loureiro)

E|-------------|-------------|----------|
B|-------------|-------------|----------|
G|-------------|------7------|-5--------| (2X)                                                                                                                                                                                                                                    D|-2-----------|--4---7------|-5--------|
A|-2-----------|--4---5--5-5-|-3--------|
E|-0---0--0----|--2----------|----------|

E|-------------|-----------|----------|
B|-------------|-----------|----------|
G|-------------|-----------|-4--------|                                                                                                                                                                                                                                     D|-2-----------|--------3--|-4--------|
A|-2-----------|--------3--|-2--------|
E|-0-----------|--------1--|----------|

(Outro)
(Guitarra II Overdrive Guitar. Kiko Loureiro)

E|-------------------------------------------------------|
B|--8--10---x--x---10---9--9---x-x-9---8--8-x-x--8-------|
G|--9--9-----------9----9--9-------9---9--9------9-------|                                                                                                                                                                                                                                    D|-----------------7---------------6-------------5-------|
A|-------------------------------------------------------|
E|-------------------------------------------------------|

E|--------------------------------------------------|
B|--7--7----x--x---7--x-x-13-13----12-12------------|
G|--7--7-----------7------12-12----12-12--5---7-----|                                                                                                                                                                                                                                    D|-----------------4----------------------5---7-----|
A|----------------------------------------3---5-----|
E|--------------------------------------------------|

E|--------------------------------------------------------------------------|
B|--------------------------------------------------------------------------|
G|-------------------------------------------------------------5----7-------|                                                                                                                                                                                                                                    D|-------------------------------------------------------------5----7-------|
A|---------------3------------------------6-5-3-----3----------3----5-------|
E|-3-5---5---5-3---5---5-5--5--5---3-5-5-5-----------5---5-3-0--------------|

E|-----------------------------------------------------------------------|
B|-----------------------------------------------------------------------|
G|-------------------------------------------------------------5---------|                                                                                                                                                                                                                                    D|-------------------------------------------------------------5---------|
A|---------------3------------------------6-5-3-----3----------3---------|
E|-3-5---5---5-3---5---5-5--5--5---3-5-5-5-----------5---5-3-0-----------|

E|-------------|-----------|----------|
B|-------------|-----------|----------|
G|-------------|-----------|-5--------|                                                                                                                                                                                                                                     D|-2-----------|--------3--|-5--------|
A|-2-----------|--------3--|-3--------|
E|-0-----------|--------1--|----------|

E|-------------|---------|------0----|
B|-------------|---------|------1----|
G|-------------|--7------|------0----|                                                                                                                                                                                                                                     D|-2-----------|--7------|-3----2----|
A|-2-----------|--5------|-3----3----|
E|-0-----------|---------|-1---------|
Guitarra I Distortion Guitar. Rafael Bittencourt)

E|-------------|--------3---|-----------|
B|-------------|--------3---|-----------|
G|-------------|--------0---|-5-----7---|                                                                                                                                                                                                                                     D|-------------|--------0---|-5-----7---|
A|-7----7------|------------|-3-----5---|
E|-5----4------|-3-2----3---|-----------|

E|-------------|-----------|----------|
B|-------------|-----------|----------|
G|-------------|-----------|-4--------|                                                                                                                                                                                                                                     D|-2-----------|--------3--|-4--------|
A|-2-----------|--------3--|-2--------|
E|-0-----------|--------1--|----------|

E|--------------------------------------------------------------------------|
B|--------------------------------------------------------------------------|
G|--------------------------------------------------------------------5---7-|                                                                                                                                                                                                                                    D|--------------------------------------------------------------------5---7-|
A|-2-3--3---3-2-3-5-5----3---3-2-3-0-3----3----3-0-3-3-2-0----2-0-3---3---5-|
E|---------------------------------------------------------3----------------|

E|-------------------------------------------------------------------------|
B|-------------------------------------------------------------------------|
G|--------------------------------------------------------------------5----|                                                                                                                                                                                                                                    D|--------------------------------------------------------------------5----|
A|-2-3--3---3-2-3-5-5----3---3-2-3-0-3----3----3-0-3-3-2-0----2-0-3---3----|
E|---------------------------------------------------------3---------------|

E|-------------|---------|---------|
B|-------------|---------|---------|
G|-------------|---------|-7-------|                                                                                                                                                                                                                                     D|-2-----------|--3------|-7-------|
A|-2-----------|--3------|-5-------|
E|-0-----------|--1------|---------|

E|-------------|----------|-------1------|
B|-------------|----------|------1--1----|
G|-5-----------|--2---7---|----------2---|                                                                                                                                                                                                                                     D|-5-----------|--2---7---|---3-------3--|
A|-3-----------|--0---5---|--------------|
E|-------------|----------|-1------------|

Guitarra I Distortion Guitar. Rafael Bittencourt)


E|--------------------------------------------------------------------------|
B|--------------------------------------------------------------------------|
G|--7-7-7-7-7-7-7-7-7-7-7-7-7-7-7-7--7-7-7-7-7-7-7-7-7-7-7-7-7--------------|                                                                                                                                                                                                                                    D|--------------------------------------------------------------------------|(10 x)
A|--------------------------------------------------------------------------|
E|--------------------------------------------------------------------------|

E|-------------|---------|---------|
B|-------------|---------|-------5-|
G|-------------|---------|-4-----4-|                                                                                                                                                                                                                                     D|-2-----------|--4------|-2-----4-|
A|-2-----------|--4------|-2-----2-|
E|-0-----------|--2------|-0-------|
Guitarra I Distortion Guitar. Rafael Bittencourt)(solo)Pate 1

E|----------------------------------------------------------------------------------------|
B|------------8-8-7------------------------------------------------8-8-7------------------|
G|--------------------7-7----7-----------7-7-6------4-4-6----------------7-7-------7------|                                                                                                                                                                                                                                    D|-------9-9--------------7-7---------7-7----------------------9-9------------7-7---------|
A|--7-7---------------------------5-5----------------------7-7----------------------------|
E|----------------------------------------------------------------------------------------|

E|------------------------------------------------------------------------------------|
B|------------------------------------------------------------------------------------|
G|---9-----------9---------7------7h9-----------7-----6h7---------4-----2h4----2------|                                                                                                                                                                                                                                    D|---------------9-------9----9--------9------7---7------------4-----4-------4----4---|
A|-------8--7-7--------7------------------5----------------2--------------------------|
E|------------------------------------------------------------------------------------|

E|--------------------------------------------------------------|
B|--------------------12----10-12-10----------10-----7-10-7-12--|
G|-----------------11----11-----------11----9-----9-------------|                                                                                                                                                                                                                                    D|-2h4--0-2/-----9-----------------------7----------------------|
A|--------------------------------------------------------------|
E|--------------------------------------------------------------|

E|------------------------------------19-----------14-------14-11-12-11-------------|
B|-12------------------------9-10-----------------------------------------14--------|
G|-11--------------------9-11-----------------------------------------------------11|                                                                                                                                                                                                                                    D|-9------------9-11-12-------------------------------------------------------------|
A|-----9-11-12----------------------------------------------------------------------|
E|----------------------------------------------------------------------------------|

E|-19-------16-----14-16-14---14------------19-----14-------14---11-12--11-----------------|
B|---------------------------------16--------------------------------------------14--------|
G|------------------------------------------------------------------------------------11---|                                                                                                                                                                                                                                    D|-----------------------------------------------------------------------------------------|
A|-----------------------------------------------------------------------------------------|
E|-----------------------------------------------------------------------------------------|

E|-14--12-17-------12---14-|
B|-------------------------|
G|-------------------------|                                                                                                                                                                                                                                    D|-------------------------|
A|-------------------------|
E|-------------------------|
(Solo)Parte 2
E|-----------------------------------------------------------|
B|-----------------------------------------------------------|
D|-----------------------------------------6-8-9-8-6---------|
G|--------------6-7-9-7-6-------------6-7-9------------------|
A|-------6-7-9--------------9-7-6-7-9------------------------|
E|--5-7-9----------------------------------------------------|

E|-------------------------------7-9-11-12-11-9-7-------------------------------|
B|------------------------7-9-10------------------10-9-7------------------------|
G|-----------------6-8-9---------------------------------9-8-6--------8-6-9-----|                                                                                                                                                                                                                                    D|--9-7-6--7-6-9----------------------------------------------------------------|
A|------------------------------------------------------------------------------|
E|------------------------------------------------------------------------------|

E|--------------------------------------------------7h9h11------12-11-12-9------|
B|-------------------------------------------7h9h10-----------------------------|
G|-11b--11---9h11--8-9-4-9-------------6-8-9------------------------------------|                                                                                                                                                                                                                                    D|--------------------------4/6----6-9------------------------------------------|
A|------------------------------------------------------------------------------|
E|------------------------------------------------------------------------------|

E|--------------------------------------------------------------------------|
B|-12-10-7-9-10-9-7----------------------------7----------------------------|
G|------------------9-8-6----------------6-8-9----8-6-----------------------|                                                                                                                                                                                                                                    D|------------------------9-7-6----6-7-9--------------9-7-6-----------------|
A|------------------------------9---------------------------9-7-6-4---------|
E|--------------------------------------------------------------------------|

E|----------------------9h14h9---------14----12h16--17t16---17t16t14h12----|
B|----------------9h14----------12/14-----14-------------------------------|
G|--13h9------9h13---------------------------------------------------------|                                                                                                                                                                                                                                    D|--------11---------------------------------------------------------------|
A|-------------------------------------------------------------------------|
E|-------------------------------------------------------------------------|

E|-----------------------12t14----21t12h14-19t-21t16/17---------------------|
B|-16h14h12-17t12h14h16-----------------------------------------------------|
G|--------------------------------------------------------------------------|                                                                                                                                                                                                                                    D|--------------------------------------------------------------------------|
A|--------------------------------------------------------------------------|
E|--------------------------------------------------------------------------|

(Guitarra II Overdrive Guitar. Kiko Loureiro)(Solo)Pate1)
E|----------------------------------------------------------------------------------------|
B|------------8-8-7------------------------------------------------8-8-7------------------|
G|--------------------7-7----7-----------7-7-6------4-4-6----------------7-7-------7------|                                                                                                                                                                                                                                    D|-------9-9--------------7-7---------7-7----------------------9-9------------7-7---------|
A|--7-7---------------------------5-5----------------------7-7----------------------------|
E|----------------------------------------------------------------------------------------|

E|-----------------------------------------------------------------------------------------|
B|-------------------------8-----7h8h7---------7-----5h7h5--------2h3h2--0h2h0-------------|
G|---9-----------9--------------------7--------------------7------------------2---4-2-4/---|                                                                                                                                                                                                                                    D|---------------9-------9----9--------------7----7-----------------------------4----------|
A|-------8--7-7--------7------------------5------------------------------------------------|
E|-----------------------------------------------------------------------------------------|

E|-------10-----9h10h9------------9-------7h9h7-------|
B|-----------------------12-----------------------7---|
G|----11----11------------------9----9----------------|                                                                                                                                                                                                                                    D|-9-------------------------7------------------------|
A|----------------------------------------------------|
E|----------------------------------------------------|

E|--------------------------------------|---------------------------|
B|-12-----------------------------12-14-|-14-10---------------------|
G|-11--------------------11-13-14-------|-------13--13--9-----------|                                                                                                                                                                                                                                    D|-9-------------11-12-14---------------|------------------13-------|
A|--------12-14-------------------------|---------------------------|
E|--------------------------------------|---------------------------|

E|-----------------------------9-7-9-11-9-------12h11h12-9-12-9-----|
B|----------9-7h9h7------------------------9------------------------|
G|------9------------9-------9----------------11--------------------|                                                                                                                                                                                                                                    D|----9----------------9--7-----------------------------------------|
A|--9---------------------------------------------------------------|
E|------------------------------------------------------------------|

E|----------9-7-------------------------------------------------------------|
B|--------------9-------------9-7h9h7------------10--9-----14--10--12-------|
G|-------9--------9--11-----9----------8-9--11----------9-------------------|                                                                                                                                                                                                                                    D|--7----------------------9-------------------11---------9-----------------|
A|-----------------------9--------------------------------------------------|
E|--------------------------------------------------------------------------|
(Parte 2 Base )

E|-------------|------------|-----------|
B|-------------|------------|-----------|
G|-------------|--------6---|-8-----4---|                                                                                                                                                                                                                                     D|-4----6------|-9------6---|-9-----4---|
A|-4----7------|-9------4---|-6-----2---|
E|-2----4------|-7----------|-----------|

E|-------------|-----------|-3--------|
B|-------------|-----------|-5--------|
G|-6-----8-----|-4----2----|-5--------|                                                                                                                                                                                                                                     D|-6-----9-----|-4----2----|-5--------|
A|-4-----6-----|-2----0----|-3--------|
E|-------------|-----------|----------|

(Parte 3)
E|----------------------------------------------------------------3-7/8--3-10h8h7------|
B|-7--8h7h5-7--8h7h5-4h5h7h5h4--------------------------------3-5----------------------|
G|-----------------------------7h5h4----------------------4-5--------------------------|                                                                                                                                                                                                                                    D|-----------------------------------7h5h4-------------4-5-----------------------------|
A|-----------------------------------------7h5h3----3-7--------------------------------|
E|-------------------------------------------------------------------------------------|

E|-----------------------------------------------------------------------------------|
B|-10h8h7--------------------------------------------------------------------7/5-----|
G|--------9h7h5---------------------------------------5/4--5h7h9-7-5-4-5h7h9---------|                                                                                                                                                                                                                                    D|-------------9h7h5---------5/4--5h7h9-7--5/4--5h7h9--------------------------------|
A|-------------------9h7h5-----------------------------------------------------------|
E|-----------------------------------------------------------------------------------|

E|----------------------7h8h10h12----11h10h8-12-8-14---10-14-13-12-10--15-12-17---------|
B|-7h8h10-8-7/5-7h8h10------------------------------------------------------------------|
G|--------------------------------------------------------------------------------------|                                                                                                                                                                                                                                    D|--------------------------------------------------------------------------------------|
A|--------------------------------------------------------------------------------------|
E|--------------------------------------------------------------------------------------|

E|-14--19---14--19--19---19--17h15h12h14--12--------------------------------|
B|--------------------------------------------12-13-15-13-12-10--12-10------|
G|--------------------------------------------------------------------------|                                                                                                                                                                                                                                    D|--------------------------------------------------------------------------|
A|--------------------------------------------------------------------------|
E|--------------------------------------------------------------------------|

E|---------------------------------------------------------12-15-13-12-------|
B|-------------------------12-13-----------------11-12-15--------------------|
G|----------------11-12-14-------------11-12-14------------------------------|                                                                                                                                                                                                                                    D|-------10-12-14----------------12-14---------------------------------------|
A|-12-14---------------------------------------------------------------------|
E|---------------------------------------------------------------------------|
Guitarra II Overdrive Guitar. Kiko Loureiro) Parte 4 Fim do solo

E|-17--19-15-17---20b--15--17--19--19b--19h17-------17----19----20----17----|
B|---------------------------------------------/17-----17----17----17----17-|
G|--------------------------------------------------------------------------|                                                                                                                                                                                                                                    D|--------------------------------------------------------------------------|
A|--------------------------------------------------------------------------|
E|--------------------------------------------------------------------------|

E|----17-----22b----22--------------|
B|-20-------------------------5/----|
G|----------------------------------|                                                                                                                                                                                                                                    D|----------------------------------|
A|----------------------------------|
E|----------------------------------|
(Guitarra I Distortion Guitar. Rafael Bittencourt)Base da Parte 4 Fim do solo

E|-------------|-----------|----------|
B|-3-----------|-----------|----------|
G|-2-----------|-----------|-5--------|                                                                                                                                                                                                                                     D|-0--------2--|--------3--|-5--------|
A|----------2--|--------3--|-3--------|
E|----------0--|--------1--|----------|

E|-------------|
B|-------------|
G|-------------|                                                                                                                                                                                                                                     D|-7--7----5---|
A|-7--7----5---|
E|-5--5----3---|
......................................................................................
(Guitarra I Distortion Guitar. Rafael Bittencourt)(Verso 3)

E|-------------|-------------|
B|-------------|-------------|
G|-------------|-------------|                                                                                                                                                                                                                                     D|-------3-----|-7--7----5---|
A|-2-2---3-----|-7--7----5---|
E|-0-0---1-----|-5--5----3---|

E|---------------------------------------3---|--3---|----------------|
B|---------------------------------------3---|--3---|----5----7------|
G|---------------------------------------0---|--0---|----5----7------|                                                                                                                                                                                                                                    D|-----------------------------------4---0---|--0---|----3----5------|
A|-----------------------------------4-------|------|----------------|
E|-8-8-8-8-7-7-7-7-5-5-5-5-3-3-3-3---2---3---|--3---|----------------|

E|--------------------------------------------------------------------------|
B|--------------------------------------------------------------------------|
G|--------------------------------------------------------------------5---7-|                                                                                                                                                                                                                                    D|--------------------------------------------------------------------5---7-|
A|-2-3--3---3-2-3-5-5----3---3-2-3-0-3----3----3-0-3-3-2-0----2-0-3---3---5-|
E|---------------------------------------------------------3----------------|

E|-------------------------------------------------------------------------|
B|-------------------------------------------------------------------------|
G|--------------------------------------------------------------------5----|                                                                                                                                                                                                                                    D|--------------------------------------------------------------------5----|
A|-2-3--3---3-2-3-5-5----3---3-2-3-0-3----3----3-0-3-3-2-0----2-0-3---3----|
E|---------------------------------------------------------3---------------|

E|-------------|---------|---------|
B|-------------|---------|---------|
G|-------------|---------|-7-------|                                                                                                                                                                                                                                     D|-2-----------|--3------|-7-------|
A|-2-----------|--3------|-5-------|
E|-0-----------|--1------|---------|

E|-------------|----------|-------1------|
B|-------------|----------|------1--1----|
G|-5-----------|--2---7---|----------2---|                                                                                                                                                                                                                                     D|-5-----------|--2---7---|---3-------3--|
A|-3-----------|--0---5---|--------------|
E|-------------|----------|-1------------|

E|-------------|-------------|
B|-------------|-------------|
G|-------------|-------------|                                                                                                                                                                                                                                     D|-------3-----|-7--7----5---|
A|-2-2---3-----|-7--7----5---|
E|-0-0---1-----|-5--5----3---|
(Guitarra II Overdrive Guitar. Kiko Loureiro)(Verso 3)

E|---------------------------------------3---|--3---|----------------|
B|---------------------------------------3---|--3---|----5----7------|
G|---------------------------------------0---|--0---|----5----7------|                                                                                                                                                                                                                                    D|-----------------------------------4---0---|--0---|----3----5------|
A|-----------------------------------4-------|------|----------------|
E|-8-8-8-8-7-7-7-7-5-5-5-5-3-3-3-3---2---3---|--3---|----------------|

E|--------------------------------------------------------------------------|
B|--------------------------------------------------------------------------|
G|-------------------------------------------------------------5----7-------|                                                                                                                                                                                                                                    D|-------------------------------------------------------------5----7-------|
A|---------------3------------------------6-5-3-----3----------3----5-------|
E|-3-5---5---5-3---5---5-5--5--5---3-5-5-5-----------5---5-3-0--------------|

E|-----------------------------------------------------------------------|
B|-----------------------------------------------------------------------|
G|-------------------------------------------------------------5---------|                                                                                                                                                                                                                                    D|-------------------------------------------------------------5---------|
A|---------------3------------------------6-5-3-----3----------3---------|
E|-3-5---5---5-3---5---5-5--5--5---3-5-5-5-----------5---5-3-0-----------|

E|-------------|-----------|----------|
B|-------------|-----------|----------|
G|-------------|-----------|-5--------|                                                                                                                                                                                                                                     D|-2-----------|--------3--|-5--------|
A|-2-----------|--------3--|-3--------|
E|-0-----------|--------1--|----------|

E|-------------|---------|------0----|
B|-------------|---------|------1----|
G|-------------|--7------|------0----|                                                                                                                                                                                                                                     D|-2-----------|--7------|-3----2----|
A|-2-----------|--5------|-3----3----|
E|-0-----------|---------|-1---------|

(Fim)
(Guitarra II Overdrive Guitar. Kiko Loureiro)
E|-------3----|------3-----|------3---|
B|-----3---3--|----3---3---|---3----3-|
G|---5-------5|-5--------5-|-5-------5|(29x)                                                                                                                                                                                                                                    D|------------|------------|----------|
A|------------|------------|----------|
E|------------|------------|----------|

(Guitarra I Distortion Guitar. Rafael Bittencourt)                                                                     Esta parte é tocada até o fim da música o mesmo Riff:

E|--------------3-|---------------|---------------3-|-------------|
B|--------------3-|---------------|---------------3-|-------------|
G|----------------|---------------|-----------------|-------------|                                                                                                                                                                                                                                   D|----------------|---------------|-----------------|-------------|
A|-3--3---3---3---|--3-3--3-3--3--|-----------------|-------------|
E|----------------|---------------|-6--6--6--6------|-6--6--6-6--6|

E|--------------3-|---------------|---------------3-|-------------|
B|--------------3-|---------------|---------------3-|-------------|
G|----------------|---------------|-----------------|-------------|                                                                                                                                                                                                                                   D|----------------|---------------|-----------------|-------------|
A|----------------|---------------|-----------------|-------------|
E|-5-5----5---5---|-5-5--5--5---5-|-4--4--4--4------|-4--4--4-4---|


Composição de Bittencourt / Kiko Loureiro
Colaboração e revisão:
  • Jonatha David
  • tiago peres
25.901 exibições
    • ½ Tom
    • A
    • Bb
    • B
    • C
    • Db
    • D
    • Eb
    • E
    • F
    • F#
    • G
    • Ab
  • Adicionar à lista

    0 comentários

    Mostrar mais comentários

    Conseguiu tocar?

    1 Tocaram 0 Ainda não

    Grave um vídeo tocando The Shadow Hunter e mande pra gente!

    00:00 / 00:00
    outros vídeos desta música
    repetir qualidade Automático
    Outros vídeos desta música
    00:00 / 00:00
    Automático

    Cifra Club Pro

    Aproveite o Cifra Club com benefícios exclusivos e sem anúncios
    Cifra Club Pro
    Aproveite o Cifra Club com benefícios exclusivos e sem anúncios
    OK