Cifra Club

Time

Angra

Cifra: Principal (violão e guitarra)
Selo Cifra Club: esta cifra foi revisada para atender aos critérios oficiais da nossa Equipe de Qualidade.
tom: Eb (forma dos acordes no tom de E) Afinação: Eb Ab Db Gb Bb Eb
Intro 1 (6 times)

  D
E|--------2-0h2p0-------------3---5---3--| I
B|------3---------3---------3------------| I
G|----2-------------2-----3-----3---3----| I
D|--0-----------------0-0----------------| I
A|---------------------------------------| I
E|---------------------------------------| I

E|--------2-0h2p0-------------------0----| I
B|------3---------3---------3-----3---3--| I
G|----2-------------2-----3-----3--------| I
D|--0-----------------0-3-----2----------| I
A|---------------------------------------| I
E|---------------------------------------| I

Intro 2 (Clean)
C9                    D                C9       G
E|---3----3-----3-------2-----2----2-----3----3---3--| I
B|---3----3-----3-------3-----3----3-----3----3---3--| I
G|---0----0-----0-------2-----2----2-----0----0---0--| I
D|---2----2-----2------------------------2----2---0--| I
A|---3----3-----3------------------------3----3---2--| I
E|------------------------------------------------3--| I

Riff 1.1 (2 times)

E|-----------------------------------------------------------| I
B|--3----------3-3-3----------3-3-3----------3-3-3--------3--| I
G|--2----------2-2-3----------3-3-4----------4-4-3--2-0-0-2--| I
D|--0--0-0-0-0-0-0-0--0-0-0-0-0-0-0--0-0-0-0-0-0-0------0-0--| I
A|-----------------------------------------------------------| I
E|-----------------------------------------------------------| I


Riff 1.2 (4 times)

E|-----------------------------------------------------------------------| I
B|--3------------------3------------------3------------------3--------3--| I
G|--2------------------3------------------4------------------3--2-0-0-2--| I
D|--0--0-0-0-0-0-0-0-0-0--0-0-0-0-0-0-0-0-0--0-0-0-0-0-0-0-0-0------0-0--| I
A|-----------------------------------------------------------------------| I
E|-----------------------------------------------------------------------| I


Riff 2.1     (2:12 min)


E|------------------------------------------------------| I
B|------------------------------------------------------| I
G|--7---14--12--10--15--14--12--10------14--12--14--12--| I
D|------------------------------------------------------| I
A|--5---12--10---8--13--12--10---8------12--10--12--10--| I
E|------------------------------------------------------| I


Repeat riff 1.2 (2 times)

Riff 2.2 (2:34)

E|---------------------------------------------------------------------| I
B|---------------------------------------------------------------------| I
G|--15--14--12--10--15--14--12--10--7-----------7---7-----------7-5-7--| I
D|----------------------------------7-----------7---7-----------7-5-7--| I
A|--13--12--10---8--13--12--10---8--5---5-5-5-5-5---5---5-5-5-5-5-5-5--| I
E|---------------------------------------------------------------------| I

Repeat riff 2.1 (1 time)

Lead 1

1ª Guitarra
 [...Abafado...]
E|------------------------|
B|----------------10------|
G|-------------------10-9-|
D|-12-10-11-12-10---------|
A|------------------------|
E|------------------------|

2ª Guitarra

 [Abafado]
E|-----------------|
B|-----------6-----|
G|-------------7-5-|
D|-7-6-7-8-7-------|
A|-----------------|
E|-----------------|




Riff 3.1 (2 times)  (2:51 min)

Life makes
E|--------------------------| I
B|--------------------------| I
G|--7------2------3------8--| I
D|--7------2------3------8--| I
A|--5------0------1------6--| I
E|--------------------------| I


Riff 3.2

E|-----------------------------------| I
B|-----------------------------------| I
G|--7------2------3------------------| I
D|--7------2------3-----3-0----------| I
A|--5------0------1---------3-0------| I
E|------------------------------3-1--| I

Repeat riff 3.1

Lead 2 (4 times) (3:24 min)

E|--------------------------------------------------------| I
B|--------------------------------------------------------| I
G|-----------------------------------14-12---------14-12--| I
D|--12---12-10-12---12-10-12---12-12---------12-12--------| I
A|--------------------------------------------------------| I
E|--------------------------------------------------------| I

Repeat riff 1.2 (1 time)


Riff 4 (1 time) (3:44 min)

E|------------------------------------------------------| I
B|--3------------3------------3------------3---------3--| I
G|--2------------3------------4------------3--2-0--0-2--| I
D|--0--0-0-0-0-0-0--0-0-0-0-0-0--0-0-0-0-0-0-------0-0--| I
A|------------------------------------------------------| I
E|------------------------------------------------------| I


Solo 1 (3:36 min)

E|----8-----5-----8---------5--------| I
B|------6-8---8-6-----8-6-8---8-6-8--| I
G|--5---------------5----------------| I
D|-----------------------------------| I
A|-----------------------------------| I
E|-----------------------------------| I

E|----10------6------10-----------6----------| I
B|-------8-10---10-8------10-8-10---10-8-10--| I
G|--7-------------------7--------------------| I
D|-------------------------------------------| I
A|-------------------------------------------| I
E|-------------------------------------------| I

E|-----13-------10-------10----12----10-----------------13-12--------| I
B|--------12-13----13-12----12----12----13-12-11--11-11-------13-15--| I
G|--10---------------------------------------------------------------| I
D|-------------------------------------------------------------------| I
A|-------------------------------------------------------------------| I
E|-------------------------------------------------------------------| I


Solo 2 (3:45 min)
                                  T          T
                       H  o  h  h  o  o  h  h  o  h
E|--------------------13-17-13-17-18-17-13-17-20-17-22--| I
B|--15-------------15-----------------------------------| I
G|--------------14--------------------------------------| I
D|-----------15-----------------------------------------| I
A|-----13-17--------------------------------------------| I
E|------------------------------------------------------| I

             H  o  h            h  o  o  h       h      h  h  o  o  o
E|--19------19-20-17-19---17---19-20-19-17-19---20-19--17-19-20-19-17--| I
B|---------------------------------------------------------------------| I
G|---------------------------------------------------------------------| I
D|---------------------------------------------------------------------| I
A|---------------------------------------------------------------------| I
E|---------------------------------------------------------------------| I

             T                       T                      T
     H  h  h  o  o  o        h  h  h  o  o  o        h  h  h
E|--13-15-17-18-17-15-13-----------------------------------------------------| I
B|-----------------------15----------------------------------------------10--| I
G|--------------------------14-15-17-19-17-15-14-----------------------------| I
D|-----------------------------------------------17--------------------------| I
A|--------------------------------------------------13-15-17-19--17-15-13----| I
E|---------------------------------------------------------------------------| I


Solo 3 (3:52 min)

                                 H             s     s
E|--------------------------------------------------------| I
B|--------------------------------------------------------| I
G|--10---10-12-14-12--10-9-10-5--5-7-5--------------------| I
D|-------------------------------------7------------------| I
A|---------------------------------------8-7-8-7-12--7-8--| I
E|--------------------------------------------------------| I

                     S   s
E|------------------------------| I
B|------------------------------| I
G|------------------------------| I
D|--10-8-7-5-7------(7)-10-8-7--| I
A|------------------------------| I
E|------------------------------| I


Solo 4 (4:04 min)

E|--------------------------------------13-17-15-17--| I
B|--------------------------15-14-15-17--------------| I
G|-----------------------14--------------------------| I
D|--------------12-14-15-----------------------------| I
A|-----------12--------------------------------------| I
E|--10-12-13-----------------------------------------| I

E|--13-17-12-17----------13-17-(17)--| I
B|--------------15----15-------------| I
G|-----------------14----------------| I
D|-----------------------------------| I
A|-----------------------------------| I
E|-----------------------------------| I


Lead 2 (4:08 min)

    1^      H           s      s
E|--15-----12-13-------13-12---8-5---| I
B|---------------15------------------| I
G|-----------------------------------| I
D|-----------------------------------| I
A|-----------------------------------| I
E|-----------------------------------| I

Repeat riff 2.1
Repeat lead 1
Repeat riff 3.1
Repeat riff 1.1
Repeat riff 1.2

E|-----| I
B|-----| I
G|--3--| I
D|--3--| I
A|--1--| I
E|-----| I


Refrão no Violão

C#m           G#m      F#m             D A E
Life makes us feel the time we cannot hold
C#m           G#m    F#m           D A E
Time makes us live a tale already told
C#m           G#m    F#m
Time makes us heal a feeling inside
  D            A           C#m
A feeling that lies in our heart
        G#m     F#m
That we stole away
Outros vídeos desta música
    63.097 exibições
      • ½ Tom
      • A
      • Bb
      • B
      • C
      • Db
      • D
      • Eb
      • E
      • F
      • F#
      • G
      • Ab
    • Adicionar à lista

    Afinação da cifra

    Afinador online

      0 comentários

      Ver todos os comentários

      Conseguiu tocar?

      3Tocaram2Ainda não

      Grave um vídeo tocando Time e nos envie!

      Toque também

      1. Imagem do artista ShamanFairy Tale Shaman
      2. Imagem do artista Andre MatosFairy Tale Andre Matos
      3. Imagem do artista Edu FalaschiPegasus Fantasy - Saint Seya Edu Falaschi
      4. Imagem do artista HangarTime To Forget Hangar

      Entre para o Cifra Club PRO

      Tenha acesso a benefícios exclusivos no App e no Site

      • Chega de anúncios

      • Badges exclusivas

      • Mais recursos no app do Afinador

      • Atendimento Prioritário

      • Aumente seu limite de lista

      • Ajude a produzir mais conteúdo

      Cifra Club Pro

      Aproveite o Cifra Club com benefícios exclusivos e sem anúncios
      Cifra Club Pro
      Aproveite o Cifra Club com benefícios exclusivos e sem anúncios
      OK