Cifra Club

Overlap

Ani DiFranco

Cifra: Principal (violão e guitarra)
tom: D
E|------x-------x-------0-----|------x-------x-------7-----|
B|--3---x---5---x------7-7----|--3---x---5---x------7-7----|
G|--4---x---4---x-----6---6---|--4---x---4---x-----6---6---|
D|------x-------x----0--------|------x-------x----0--------|
A|------x-------x-------------|------x-------x-------------|
E|--3---x---5---x---7---------|--3---x---5---x---7---------|

E|------x-------x-------7-----|------x-------x-------------|
B|--3---x---5---x------7-7----|--3---x---5---x------7------|
G|--4---x---4---x-----6---6---|--4---x---4---x-----6-------|
D|------x-------x----0--------|------x-------x----0--------|
A|------x-------x-------------|------x-------x-------------|
E|--3---x---5---x---7---------|--3---x---5---x---7---------|

E|------x-------x-------0-----|------x-------x-------7-7-7-|
B|--3---x---5---x------7-7----|--3---x---5---x------7------|
G|--4---x---4---x-----6---6---|--4---x---4---x-----6-------|
D|------x-------x----0--------|------x-------x----0--------|
A|------x-------x-------------|------x-------x-------------|
E|--3---x---5---x---7---------|--3---x---5---x---7---------|
Search your profile for a translation, study the conversation like a map

E|------x-------x-------0-----|
B|--3---x---5---x------7-7----|
G|--4---x---4---x-----6---6---|
D|------x-------x----0--------|
A|------x-------x-------------|
E|--3---x---5---x---7---------|
Cause I know there is strength in the differences between us

E|------x---------|---------------|
B|--2---x---------|--------3------|
G|--2---x---------|-------2-------|
D|------x---------|------0--------|
A|------x---------|---------------|
E|--2---x---------|-----3---------|
And I know there is comfort where we overlap

E|------x-------x-------0-----|------x-------x-------0-----|
B|--3---x---5---x------7-7----|--3---x---5---x------7-7----|
G|--4---x---4---x-----6---6---|--4---x---4---x-----6---6---|
D|------x-------x----0--------|------x-------x----0--------|
A|------x-------x-------------|------x-------x-------------|
E|--3---x---5---x---7---------|--3---x---5---x---7---------|
Come here stand in front of the light, stand still so I can see your silhouette

E|------x-------x-------7-----|------x---------|---------------|
B|--3---x---5---x------7-7----|--2---x---------|--------3------|
G|--4---x---4---x-----6---6---|--2---x---------|-------2-------|
D|------x-------x----0--------|------x---------|------0--------|
A|------x-------x-------------|------x---------|---------------|
E|--3---x---5---x---7---------|--2---x---------|-----3---------|

I hope You have got all night' cause I'm not done looking,No, I'm not done
E|------x-------x-------0-----|------x-------x-------7-7-7-|
B|--3---x---5---x------7-7----|--3---x---5---x------7------|
G|--4---x---4---x-----6---6---|--4---x---4---x-----6-------|
D|------x-------x----0--------|------x-------x----0--------|
A|------x-------x-------------|------x-------x-------------|
E|--3---x---5---x---7---------|--3---x---5---x---7---------|

Looking yet
E|------x-------x-------0-----|------x-------x-------0-----|
B|--3---x---5---x------7-7----|--3---x---5---x------7-7----|
G|--4---x---4---x-----6---6---|--4---x---4---x-----6---6---|
D|------x-------x----0--------|------x-------x----0--------|
A|------x-------x-------------|------x-------x-------------|
E|--3---x---5---x---7---------|--3---x---5---x---7---------|
Each one of us Wants a piece of the action, You can hear it in what we say You can see it in what we do

E|------x-------x-------0-----|------x---------|---------------|
B|--3---x---5---x------7-7----|--2---x---------|--------3------|
G|--4---x---4---x-----6---6---|--2---x---------|-------2-------|
D|------x-------x----0--------|------x---------|------0--------|
A|------x-------x-------------|------x---------|---------------|
E|--3---x---5---x---7---------|--2---x---------|-----3---------|

We negotiate with chaos For some sense of satisfaction, If you won't give it to me At least give me a better view

E|------x-------x-------0-----|------x-------x-------7-----|
B|--3---x---5---x------7-7----|--3---x---5---x------7-7----|
G|--4---x---4---x-----6---6---|--4---x---4---x-----6---6---|
D|------x-------x----0--------|------x-------x----0--------|
A|------x-------x-------------|------x-------x-------------|
E|--3---x---5---x---7---------|--3---x---5---x---7---------|
Come here stand in front of the light, stand still so I can see your silhouette

E|------x-------x-------7-7-7-|------x---------|---------------|
B|--3---x---5---x------7------|--2---x---------|--------3------|
G|--4---x---4---x-----6-------|--2---x---------|-------2-------|
D|------x-------x----0--------|------x---------|------0--------|
A|------x-------x-------------|------x---------|---------------|
E|--3---x---5---x---7---------|--2---x---------|-----3---------|

I hope You have got all night'cause I'm not done looking,No, I'm not 

E|------x-------x-------0-----|------x-------x-------7-7-7-|
B|--3---x---5---x------7-7----|--3---x---5---x------7------|
G|--4---x---4---x-----6---6---|--4---x---4---x-----6-------|
D|------x-------x----0--------|------x-------x----0--------|
A|------x-------x-------------|------x-------x-------------|
E|--3---x---5---x---7---------|--3---x---5---x---7---------|
Done looking yet

E|------x-------x-------0-----|------x-------x-------------|
B|--3---x---5---x------7-7----|--3---x---5---x------7------|
G|--4---x---4---x-----6---6---|--4---x---4---x-----6-------|
D|------x-------x----0--------|------x-------x----0--------|
A|------x-------x-------------|------x-------x-------------|
E|--3---x---5---x---7---------|--3---x---5---x---7---------|

E|------x-------x-------0-----|------x-------x-------7-----|
B|--3---x---5---x------7-7----|--3---x---5---x------7-7----|
G|--4---x---4---x-----6---6---|--4---x---4---x-----6---6---|
D|------x-------x----0--------|------x-------x----0--------|
A|------x-------x-------------|------x-------x-------------|
E|--3---x---5---x---7---------|--3---x---5---x---7---------|
I build each one of my songs  Out of glass, So you can see me inside of them I suppose

E|------x-------x-------0-----|------x---------|---------------|
B|--3---x---5---x------7-7----|--2---x---------|--------3------|
G|--4---x---4---x-----6---6---|--2---x---------|-------2-------|
D|------x-------x----0--------|------x---------|------0--------|
A|------x-------x-------------|------x---------|---------------|
E|--3---x---5---x---7---------|--2---x---------|-----3---------|
Or you could just leave the image of meIn the background, I guess, And watch your own reflection superimposed

E|------x-------x-------0-----|------x-------x-------------|
B|--3---x---5---x------7-7----|--3---x---5---x------7------|
G|--4---x---4---x-----6---6---|--4---x---4---x-----6-------|
D|------x-------x----0--------|------x-------x----0--------|
A|------x-------x-------------|------x-------x-------------|
E|--3---x---5---x---7---------|--3---x---5---x---7---------|
I build each one of my days out of hope And I give that hope your name
     
E|------x-------x-------0-----|------x---------|---------------|
B|--3---x---5---x------7-7----|--2---x---------|--------3------|
G|--4---x---4---x-----6---6---|--2---x---------|-------2-------|
D|------x-------x----0--------|------x---------|------0--------|
A|------x-------x-------------|------x---------|---------------|
E|--3---x---5---x---7---------|--2---x---------|-----3---------|
And I don't know you that well But it don't take much to tell,Either you don't have the balls
Or you don't feel the same

E|------x-------x-------0-----|------x-------x-------7-----|
B|--3---x---5---x------7-7----|--3---x---5---x------7-7----|
G|--4---x---4---x-----6---6---|--4---x---4---x-----6---6---|
D|------x-------x----0--------|------x-------x----0--------|
A|------x-------x-------------|------x-------x-------------|
E|--3---x---5---x---7---------|--3---x---5---x---7---------|
Come here stand in front of the light, stand still so I can see your silhouette

E|------x-------x-------0-----|------x---------|---------------|
B|--3---x---5---x------7-7----|--2---x---------|--------3------|
G|--4---x---4---x-----6---6---|--2---x---------|-------2-------|
D|------x-------x----0--------|------x---------|------0--------|
A|------x-------x-------------|------x---------|---------------|
E|--3---x---5---x---7---------|--2---x---------|-----3---------|

I hope You have got all night'cause I'm not done looking,No, I'm not 

E|------x-------x-------0-----|------x-------x-------7-----|
B|--3---x---5---x------7-7----|--3---x---5---x------7-7----|
G|--4---x---4---x-----6---6---|--4---x---4---x-----6---6---|
D|------x-------x----0--------|------x-------x----0--------|
A|------x-------x-------------|------x-------x-------------|
E|--3---x---5---x---7---------|--3---x---5---x---7---------|
Done looking yet

E|------x-------x-------7-----|------x-------x-------------|
B|--3---x---5---x------7-7----|--3---x---5---x------7------|
G|--4---x---4---x-----6---7---|--4---x---4---x-----6-------|
D|------x-------x----0--------|------x-------x----0--------|
A|------x-------x-------------|------x-------x-------------|
E|--3---x---5---x---7---------|--3---x---5---x---7---------|

E|------x-------x-------------|------x-------x-------------|
B|--3---x---5---x------7------|--3---x---5---x------7------|
G|--4---x---4---x-----6-------|--4---x---4---x-----6-------|
D|------x-------x----0--------|------x-------x----0--------|
A|------x-------x-------------|------x-------x-------------|
E|--3---x---5---x---7---------|--3---x---5---x---7---------|

I search your profile for a translation I study the conversation like a map

E|------x-------x-------------|
B|--3---x---5---x------7------|
G|--4---x---4---x-----6-------|
D|------x-------x----0--------|
A|------x-------x-------------|
E|--3---x---5---x---7---------|

'Cause I know there is strength In the differences between us
E|------x---------|---------------|
B|--2---x---------|--------3------|
G|--2---x---------|-------2-------|
D|------x---------|------0--------|
A|------x---------|---------------|
E|--2---x---------|-----3---------|

And I know there is comfort Where we overlap
E|------x-------x-------------|------x-------x-------------|
B|--3---x---5---x------7------|--3---x---5---x------7------|
G|--4---x---4---x-----6-------|--4---x---4---x-----6-------|
D|------x-------x----0--------|------x-------x----0--------|
A|------x-------x-------------|------x-------x-------------|
E|--3---x---5---x---7---------|--3---x---5---x---7---------|

E|------x-------x-------------|------x-------x-------7-----|
B|--3---x---5---x------7------|--3---x---5---x------7------|
G|--4---x---4---x-----6-------|--4---x---4---x-----6-------|
D|------x-------x----0--------|------x-------x----0--------|
A|------x-------x-------------|------x-------x-------------|
E|--3---x---5---x---7---------|--3---x---5---x---7---------|

00:00 / 00:00
Outros vídeos desta música
Repetir
Outros vídeos desta música
Composição de Ani DiFranco
Colaboração e revisão:
  • Camila Valore
16 exibições
    • ½ Tom
    • A
    • Bb
    • B
    • C
    • Db
    • D
    • Eb
    • E
    • F
    • F#
    • G
    • Ab
  • Adicionar à lista

    0 comentários

    Ver todos os comentários

    Conseguiu tocar?

    0 Tocaram 0 Ainda não

    Grave um vídeo tocando Overlap e nos envie!

    Entre para oCifra Club PRO

    Tenha acesso a benefícios exclusivos no App e no Site

    • Chega de anúncios

    • Prioridade de compra em lançamentos

    • Mais recursos no app do Afinador

    • Atendimento Prioritário

    • Descontos nos produtos Cifra Club

    • Ajude a produzir mais conteúdo

    00:00 / 00:00

    Cifra Club Pro

    Aproveite o Cifra Club com benefícios exclusivos e sem anúncios
    Cifra Club Pro
    Aproveite o Cifra Club com benefícios exclusivos e sem anúncios
    OK