Cifra Club

Joga Pra Lua

Anitta

Cifra: Principal (violão e guitarra)
Selo Cifra Club: esta cifra foi revisada para atender aos critérios oficiais da nossa Equipe de Qualidade.
tom: Am
[Intro]

  Am           Dm           Am           Dm
E|---------------------------------------------------|
B|---------------------------------------------------|
G|---------------------------------------------------|
D|---------------------------------------------------|
A|---7-7-7-7---8-8-8-8-------7-7-7-7-----8-8-8-8-----|
E|-5-------5-5---------5-5-5---------5-5---------5-5-|

Am                   Dm
De longe, eu te avistei
                 Am
Bateu uma sintonia
                 Dm
Papo que eu viajei
                    Am
Querendo essa boquinha
                     Dm
De longe, eu te avistei
                 Am
Bateu uma sintonia
                 Dm
Papo que eu viajei
                    Am
Querendo essa boquinha

       A5                  A5
Vou te buscar, vou te arrastar
                            A5
Vou te levar pra outro planeta

Am              Dm
Joga pra lua, vai!
                      Am
Joga essa bunda, vai! Vai!
                Dm
Joga pra lua, vai!
                      Am
Joga essa bunda, vai! Vai!

Am              Dm
Joga pra lua, vai!
                      Am
Joga essa bunda, vai! Vai!
                Dm
Joga pra lua, vai!
                      Am
Joga essa bunda, vai! Vai!

                               Dm                  Am
É no baile de rua que ela se acaba, se acaba, se acaba
                          Dm                      Am
Ela fica maluca, toda assanhada, assanhada, assanhada
                              Dm                  Am
É no baile de rua que ela se acaba, se acaba, se acaba
                          Dm                      Am
Ela fica maluca, toda assanhada, assanhada, assanhada

[Solo]

  Am           Dm           Am           Dm
E|---------------------------------------------------|
B|---------------------------------------------------|
G|----9---9---9---9---10---10---10---10--------------|
D|--7---7---7---7--------7----7----7----7------------|
A|---------------------------------------------------|
E|---------------------------------------------------|

Am
Dennis, o brabo
Dm
Pedro Sampaio

[Final] Am
Outros vídeos desta música
    121 exibições
      • ½ Tom
      • Am
      • Bbm
      • Bm
      • Cm
      • C#m
      • Dm
      • Ebm
      • Em
      • Fm
      • F#m
      • Gm
      • G#m
    • Adicionar à lista

    Afinação da cifra

    Afinador online

      0 comentários

      Ver todos os comentários

      Entre para o Cifra Club PRO

      Tenha acesso a benefícios exclusivos no App e no Site

      • Chega de anúncios

      • Badges exclusivas

      • Mais recursos no app do Afinador

      • Atendimento Prioritário

      • Aumente seu limite de lista

      • Ajude a produzir mais conteúdo

      Cifra Club Pro

      Aproveite o Cifra Club com benefícios exclusivos e sem anúncios
      Cifra Club Pro
      Aproveite o Cifra Club com benefícios exclusivos e sem anúncios
      OK