Cifra Club

Michel

Anouk

Cifra: Principal (violão e guitarra)
Selo Cifra Club: esta cifra foi revisada para atender aos critérios oficiais da nossa Equipe de Qualidade.
tom: Eb
Intro:

e|------------0-------|
b|--3-----3------3----|   4x
g|-----2--------------|
d|--------------------|
a|--------------------|
e|--------------------|

resto da introdução e versos:

Riff 1

e|--------0------|--------0------|--------0-----0-----0--------|
B|------3---3----|------3---3----|------3---3-----3-----3---3--|
G|----2-------2--|----2-------2--|----2-------2-----2-----2----|
D| -0------------|---------------|-----------------------------|
A|---------------|--0------------|-----------------------------|
E|---------------|---------------|--3--------------------------|

Refrão:

Eb                            Bb                Ab
We walked the street to the beach hand in hand you and me

Eb                         Bb               Ab
Smiling faces so in love hoping that they all could see

    Eb            Bb                                 Ab
That we belong together, you and me against the world

    Eb                Bb                                 
But we found out the hard way, guess it wasn't ment to be

Riff 1
Now it's you and her, I see

Riff 2

e|--------0-----0-----0--------|        [tocado durante o refrão]
B|------3---3-----3-----3---3--|
G|----2-------2-----2-----2----|
D|-----------------------------|
A|-----------------------------|
E|--3--------------------------|

Riff 3

e|--------0------|--------0------|--------------|           [tocado apenas no final]
B|------3---3----|------3---3----|------3~~~~~~-|
G|----2-------2--|----2-------2--|----2---------|
D| -0------------|---------------|--------------|
A|---------------|--0------------|--------------|
E|---------------|---------------|--3-----------|
 Hey Michel,          do you remember?  


tabs by dande ;]
Outros vídeos desta música
    3.180 exibições
      • ½ Tom
      • A
      • Bb
      • B
      • C
      • Db
      • D
      • Eb
      • E
      • F
      • F#
      • G
      • Ab
    • Adicionar à lista

    Afinação da cifra

    Afinador online

      0 comentários

      Ver todos os comentários

      Entre para o Cifra Club PRO

      Tenha acesso a benefícios exclusivos no App e no Site

      • Chega de anúncios

      • Badges exclusivas

      • Mais recursos no app do Afinador

      • Atendimento Prioritário

      • Aumente seu limite de lista

      • Ajude a produzir mais conteúdo

      Cifra Club Pro

      Aproveite o Cifra Club com benefícios exclusivos e sem anúncios
      Cifra Club Pro
      Aproveite o Cifra Club com benefícios exclusivos e sem anúncios
      Ops (: Contenido disponible sólo en portugués.
      OK