Cifra Club

Minha Resposta

Antemic

Cifra: Principal (violão e guitarra)
Tom: D
Intro:

e|-------------------------------------------|
B|-------------------------------------------|
G|-------------------------------------------|
D|-777>555>333>222>33>22-222>333>22222222----|    4x
A|-000-000-000-000-00-00>333-333-33333333----|
E|-------------------------------------------|

Verso:

e|-------------------------------------------|
B|-------------------------------------------|
G|-------------------------------------------|
D|-777>555>333>222>33>22-222>333>22222222----|    4x ( com palm mute)
A|-000-000-000-000-00-00>333-333-33333333----|
E|-------------------------------------------|
 ...........................................

Pré- Refrrão:

e|-------------------------------------------|
B|-------------------------------------------|
G|-------------------------------------------|
D|-2~~--5~~----------------------------------|
A|-0~~--3~~--5~~--555555---------------------|
E|-----------3~~--333333---------------------|


Refrão:

e|-------------------------------------------|
B|-------------------------------------------|
G|-------------------------------------------|       2X
D|-22222222--55555555------------55555555----|    
A|-00000000--33333333--55555555--33333333----|
E|---------------------33333333--------------|

Pós Refrão:

e|-------------------------------------------|
B|-------------------------------------------|
G|-------------------------------------------|
D|-22-222-2~~--55-555-5~~--------------------|
A|-00-000-0~~--33-333-3~~--------------------|
E|-------------------------------------------|
     ...         ...


Repete 

Intro 2x
Verso 4x
Pré refrão 1x
Refrão 2x
Pós refrão 1x

Ai vem a ponte.

Ponte:

e|-------------------------------------------|
B|-------------------------------------------|
G|-------------------------------------------|
D|-777>555>333>222>33>55>--------------------|    6x
A|-000-000-000-000-00-00---------------------|
E|-------------------------------------------|


Ponte 2:

e|-------------------------------------------|
B|-------------------------------------------|
G|-------------------------------------------|
D|--22222-22222-22222-22222------------------|    2x
A|--00000-00000-00000-00033------------------|
E|-------------------------------------------|
   ...   ...   ...   ...

Repete 

Pré refrão
Refrão
Pós refrão
exibições 1.285
Acordes para:
    Composição: Antemic Colaboração e revisão:
    • Mauricio Tonon

    0 comentários

    mostrar mais comentários

    Conseguiu tocar?

    0 tocaram 0 ainda não

    Grave um vídeo tocando Minha Resposta e mande pra gente!

    00:00 / 00:00
    outros vídeos desta música
    repetir qualidade Automático
    Outros vídeos desta música
    00:00 / 00:00
    Automático
    OK