Cifra Club

Aprenda

Antisocial

Anthrax

Cifra: Principal (violão e guitarra)
tom: C
+ = tied notes

INTRO
e|-0-----0-----|-0-----0-----|-3-----3-----|-3-----3-----|
B|-3---------3-|-3---------3-|-3---------3-|-3---------3-|
G|-0-----------|-0-----------|-0-----------|-0-----------|  X 2
D|-2-----------|-2-----------|-0-----------|-0-----------|
A|-3-----------|-3-----------|-------------|-------------|
E|-------------|-------------|-------------|-------------|

VERSE
e|-----------------|-----------------|-----------------|-----------------|
B|-----7-----7---7-|-----7-----7-7-7-|-----7-----7---7-|-----7-----7-7-5-|
G|-----7-----7---7-|-----7-----7-7-7-|-----8-----8---8-|-----8-----8-8-5-|
D|-5-5---5-5---5---|-5-5---5-5-------|-5-5---5-5---5---|-5-5---5-5-------|
A|-----------------|-----------------|-----------------|-----------------|
E|-----------------|-----------------|-----------------|-----------------|

e|-----------------|-----------------|-----------------|-----------------|
B|+5---5-----5---5-|-----5-----5-5-5-|-----2-----2-----|-3--3--2--2------|
G|+5---5-----5---5-|-----5-----5-5-5-|-----2-----2-----|-2--2--2--2------|
D|---3---3-3---3---|-3-3---3-3-------|-0-0---0-0---0-0-|-----------------|
A|-----------------|-----------------|-----------------|-----------------|
E|-----------------|-----------------|-----------------|-----------------|

repeat 3 times then play slightly differently :-        

e|-----------------|-----------------|-----------------|-----------------|
B|-----7-----7---7-|-----7-----7-7-7-|-----7-----7---7-|-----7-----7-7-5-|
G|-----7-----7---7-|-----7-----7-7-7-|-----8-----8---8-|-----8-----8-8-5-|
D|-5-5---5-5---5---|-5-5---5-5-------|-5-5---5-5---5---|-5-5---5-5-------|
A|-----------------|-----------------|-----------------|-----------------|
E|-----------------|-----------------|-----------------|-----------------|

e|-----------------|-----------------||
B|---------------2-|-----------------||
G|---------------2-|---2-2-2-2-7-5-5-||
D|---------------0-|---0-0-0-0-5-3-5-||
A|-----------------|-----------------||
E|-----------------|-----------------||

CHORUS
e|-----------------|-----------------|-----------------|-----------------|
B|-----------------|-----------------|-----------------|-----------------|
G|-----------------|-----------------|-----------------|-----------------|
D|-------------7-5-|-----------------|-----------------|-------3-----7---|
A|-------------5-3-|---------------5-|---------------3-|-3-3-5---5---5---|
E|-----------------|---------------3-|---------------1-|-----------------|

e|-----------------|-----------------|-----------------|-----------------|
B|-----------------|-----------------|-----------------|-----------------|
G|-----------------|-----------------|-----------------|-----------------|
D|---------------5-|-----------------|-----------------|--------------7--|
A|---------------3-|---3---3---3---5-|---------------3-|--3-3-3-3-3-3-5--|
E|-----------------|-5---5---5-----3-|---------------1-|--1-1-1-1-1-1----|

e|-----------------|-----------------|-----------------|-----------------|
B|-----------------|-----------------|-----------------|-----------------|
G|-----------------|-----------------|-----------------|-----------------|
D|-------------7-5-|-----------------|-----------------|-------3-----7---|
A|-------------5-3-|---------------5-|---------------3-|-3-3-5---5---5---|
E|-----------------|---------------3-|---------------1-|-----------------|

e|-----------------|-----------------|-----------------|-----------------||
B|-----------------|-----------------|-----------------|-----------------||
G|-----------------|-----------------|-----------------|-----------------||
D|---------------5-|-----------------|-----------------|---------------7-||
A|---------------3-|---------------5-|-----------------|---------------5-||
E|-----------------|---------------3-|---1-3-1-3-1-3-1-|-3-1-3-1-3-1-3---||

INTERLUDE: IM WORKING ON

VERSE 

CHORUS 

INTRO


any queries email at *. cheers
Composição de Norbert Krief
6.062 exibições
    • ½ Tom
    • A
    • Bb
    • B
    • C
    • Db
    • D
    • Eb
    • E
    • F
    • F#
    • G
    • Ab
  • Adicionar à lista

    0 comentários

    Ver todos os comentários

    Conseguiu tocar?

    2 Tocaram 0 Ainda não

    Grave um vídeo tocando Antisocial e nos envie!

    00:00 / 00:00
    Outros vídeos desta música
    Repetir Qualidade Automático
    Outros vídeos desta música
    00:00 / 00:00
    Automático

    Cifra Club Pro

    Aproveite o Cifra Club com benefícios exclusivos e sem anúncios
    Cifra Club Pro
    Aproveite o Cifra Club com benefícios exclusivos e sem anúncios
    OK