Cifra Club

Aprenda

Medusa

Anthrax

Cifra: Principal (violão e guitarra)
tom: D
From the album SPREADING THE DISEASE
 (Track 8)
Transcribed by Erik (theonemanorgy)
STANDARD TUNING
Intro riff and Main riff
Riff 1 (part 1)
e|-----------------------------------------|
B|-----------------------------------------|
G|-----------------------------------------|
D|-----------------------------------------|
A|-4---4-5---4---4-5---4---4-5---4---4-5---|
E|-2-2-----2-2-2-----2-2-2-----2-2-2-----2-|
pm   .     .   .     .   .     .   .     .

Riff 1 (part 2)
e|--------------------------------------|
B|--------------------------------------|
G|--------------------------------------|
D|--------2--------2--------2---------2-|
A|-2----2----2---2----2---2-----2---2---|
E|-0-0-----0-0-0----0-0-0-----0-0-0-----|
pm   .     .   .    .   .     .   .
vocals start here (oooooooooh!)
Riff 1 continues through first verse.
Composição de Anthrax
2.484 exibições
    • ½ Tom
    • A
    • Bb
    • B
    • C
    • Db
    • D
    • Eb
    • E
    • F
    • F#
    • G
    • Ab
  • Adicionar à lista

    0 comentários

    Ver todos os comentários

    Conseguiu tocar?

    0 Tocaram 0 Ainda não

    Grave um vídeo tocando Medusa e nos envie!

    00:00 / 00:00
    Outros vídeos desta música
    Repetir Qualidade Automático
    Outros vídeos desta música
    00:00 / 00:00
    Automático

    Cifra Club Pro

    Aproveite o Cifra Club com benefícios exclusivos e sem anúncios
    Cifra Club Pro
    Aproveite o Cifra Club com benefícios exclusivos e sem anúncios
    OK