Cifra Club

Protest And Survive

Anthrax

Cifra: Principal (violão e guitarra)
tom: C
Album: Attack of the Killer B's

Version 1.0 - (12/04/06)

Transcribed By: Steve
Email:          *


.  - palm mute           /  - slide up to
\  - slide down to       ~  - vibrato
p  - pull off            Suffixes for bend
t  - tap                 f  - full bend    h - half bend
ph - pinched harmonic    q  - quarter bend t - tap bend
*  - see comment         ^  - Hold bend    r release bend
,  - slight palm mute    () - ghost note, sustained note
"  - tremolo note         - harmonic

Tunning Db Ab Db Gb Bb Eb
 
 Main Riff

  [------PM------]          PM
E--------------------------------|
B--------------------------------|
G-----------------5-5/8-8-8------|
D-----------------5-5/8-8-8---0--|
A-0-0-0-0-0-0-0-0-3-3/6-6-6---0--|
E-0-0-0-0-0-0-0-0-----------0----|

 Rpt Main riff 11 X

 Chorus

E---------------------|
B---------------------|
G------------3-3-3-3--|
D-------1--1-1-1-1-1--|
A-2--3-\1--1-1-1-1-1--|
E-2--3-\1--1-1-1-1-1--| Rpt 4 X

 Rpt Main riff 8 X
 Rpt Chorus

 Guitar solo

            h     h     h    h      ~~~~~~       
E--------------------------------------------------------------|
B-13p12p10-12p10-12p10-12p10-12p10-----------------------------|
G----------------------------------12b----1010b1010b1010b1010b-|
D--------------------------------------------------------------|
A--------------------------------------------------------------|
E--------------------------------------------------------------|

   ~~~~~~~~~~~~~~~~~~~~~~~       ~~~~~~~~ ~~~~~~~~~~~~~~
E-10--12--10--12--10--12-----13-15b------r17-17-17-17---|
B-13b-15b-13b-15b-13b-15b-15--------------20b20b20b20b--|
G-------------------------------------------------------|
D-------------------------------------------------------|
A-------------------------------------------------------|
E-------------------------------------------------------|
      h        h        h        h        h
E---------------------------------------------------------------|
B-15-18p15-15-18p15-15-18p15-15-18p15-15-18p15------------------|
G----------------------------------------------0-trem dive------|
D---------------------------------------------------------------|
A---------------------------------------------------------------|
E---------------------------------------------------------------|
   ~~~~~~~~~~~~~~~~~~    ~~~~~~~~~~~~~~~~~
E----------------------------------------------------------------------|
B-----------------------13b----r-13b----r-13b----r-13b-pull up on trem-|
G-14-----15p12-14-----\------------------------------------------------|
D----------------------------------------------------------------------|
A----------------------------------------------------------------------|
E----------------------------------------------------------------------|

E-fb22--r---|
B-----------|
G-----------|
D-----------|
A-----------|
E-----------|

 Rpt Verse
 Rpt Chorus
 Rpt Verse
 Rpt Chorus

E-------|
B-------|
G-7\----|
D-7\----|
A-5\----|
E-------|



END

Composição de Garry Maloney / Kelvin Cal Morris / Roy Rainy Wainwright / Tony Bones Roberts
521 exibições
    • ½ Tom
    • A
    • Bb
    • B
    • C
    • Db
    • D
    • Eb
    • E
    • F
    • F#
    • G
    • Ab
  • Adicionar à lista

    0 comentários

    Ver todos os comentários

    Conseguiu tocar?

    0 Tocaram 0 Ainda não

    Grave um vídeo tocando Protest And Survive e nos envie!

    00:00 / 00:00
    Outros vídeos desta música
    Repetir Qualidade Automático
    Outros vídeos desta música
    00:00 / 00:00
    Automático

    Cifra Club Pro

    Aproveite o Cifra Club com benefícios exclusivos e sem anúncios
    Cifra Club Pro
    Aproveite o Cifra Club com benefícios exclusivos e sem anúncios
    OK