Cifra Club

Aprenda

Sects

Anthrax

Cifra: Principal (violão e guitarra)
tom: G
Album: Attack of the Killer B's
Version 1.0 - (14/04/06)


Transcribed By: Steve
Email:          *


.  - palm mute           /  - slide up to
\  - slide down to       ~  - vibrato
p  - pull off            Suffixes for bend
t  - tap                 f  - full bend    h - half bend
ph - pinched harmonic    q  - quarter bend t - tap bend
*  - see comment         ^  - Hold bend    r release bend
,  - slight palm mute    () - ghost note, sustained note
"  - tremolo note         - harmonic

Tunning E A D G B E
 
 Intro

 Drums on own


E-------------------------------------------------------------------|
B-------------------------------------------------------------------|
G-7--7-----------------------(7)-------------------------------9--9-|
D-7--7-----------------------(7)-------------------------------9--9-|
A-5--5-----------------------(5)-----------------------------x\7--7-|
E------------------------------------------------------------x\-----|

 Drums on own

E------|
B------|
G------|
D------|
A-12\--|
E-12\--|

 Main Riff
    [---PM---]     h h h h h h
E------------------------------|
B------------------------------|
G------------------------------|
D-9-----------7--7-------------|
A-7-----------5--5-------5-6-7-|
E---0-0-0-0-0------5-6-7-------| Rpt 8 X

 Chorus

E---------------------------------------------|
B---------------------------------------------|
G-4--4-------4--4-------4--4-------4--4-------|
D-4--4-4-4-4-4--4-4-4-4-4--4-4-4-4-4--4-4-4-4-|
A-2--2-2-2-2-2--2-2-2-2-2--2-2-2-2-2--2-2-2-2-|
E---------------------------------------------|

E---------------------------------------------|
B---------------------------------------------|
G-------5--5-/7--7-------------(7)------------|
D-5--5--5--5-/7--7-------------(7)------------|
A-5--5--3--3-/5--5-------------(5)------------|
E-3--3----------------------------------------|

 Rpt Main Riff 6 X

 Rpt Chorus

  h h   h h   h h   h 
E-------------------------|
B-------------------------|
G---------------------9-9-|
D-------------5-7p5---9-9-|
A-------5-7p5-------7-7-7-|
E-5-7p5---------------0-0-| Rpt 3 X

  h h   h h   h h   h
E---------------------------------------|
B---------------------------------------|
G---------------------7----(7)----7-6-5-|
D-------------5-7p5---7----(7)----7-6-5-|
A-------5-7p5-------7-5----(5)----5-4-3-|
E-5-7p5---------------------------------|

E---------------------------------------------------------------|
B---------------------------------------------------------------|
G-4-4-4-4--4-4-4-4--4-4-4-4--4-4-4-4--4-4-4-4--4-4-4-4--4-4-4-4-|
D-4-4-4-4--4-4-4-4--4-4-4-4--4-4-4-4--4-4-4-4--4-4-4-4--4-4-4-4-|
A-2-2-2-2--2-2-2-2--2-2-2-2--2-2-2-2--2-2-2-2--2-2-2-2--2-2-2-2-|
E---------------------------------------------------------------|

  Guitar 1
E[---------------------------------------------------------------|
B[---------------------------------------------------------------|
G[-4-4-4-4--4-4-4-4--4-4-4-4--4-4-4-4--4-4-4-4--4-4-4-4--4-4-4-4-|
D[-4-4-4-4--4-4-4-4--4-4-4-4--4-4-4-4--4-4-4-4--4-4-4-4--4-4-4-4-|
A[-2-2-2-2--2-2-2-2--2-2-2-2--2-2-2-2--2-2-2-2--2-2-2-2--2-2-2-2-|
E[---------------------------------------------------------------|
 [Guitar 2
E[---------------------------/7-7-7-7--7-7-7-7--7-7-7-7--7-7-7-7-|
B[---------------------------/7-7-7-7--7-7-7-7--7-7-7-7--7-7-7-7-|
G[---------------------------/4-4-4-4--4-4-4-4--4-4-4-4--4-4-4-4-|
D[---------------------------------------------------------------|
A[---------------------------------------------------------------|
E[---------------------------------------------------------------|

  Guitar 1
E[---------|
B[---------|
G[-4-4-4-4-|
D[-4-4-4-4-|
A[-2-2-2-2-|
E[---------|
 [Guitar 2
E[-7-7-7-7-|
B[-7-7-7-7-|
G[-4-4-4-4-|
D[---------|
A[---------|
E[---------|

E-------------------------------------|
B-------------------------------------|
G-9-9-9-9--9-9-9-9--9-9-9-9--9-9-9-9\-|
D-9-9-9-9--9-9-9-9--9-9-9-9--9-9-9-9\-|
A-7-7-7-7--7-7-7-7--7-7-7-7--7-7-7-7\-|
E-------------------------------------|

E------------------------------------|
B------------------------------------|
G-5-5-5-5--5-5-5-5--5-5-5-5--5-5-5-5-|
D-5-5-5-5--5-5-5-5--5-5-5-5--5-5-5-5-|
A-3-3-3-3--3-3-3-3--3-3-3-3--3-3-3-3-|
E------------------------------------|

 [------------------------------PM----------------------------------]
E--------------------------------------------------------------------|
B--------------------------------------------------------------------|
G--------------------------------------------------------------------|
D--------------------------------------------------------------------|
A-5-5-5-5-5-5-5-5\4-4-4-4\3-3-3-3-2-2-2-2--2-2-2-2--2-2-2-2--2-2-2-2-|
E-3-3-3-3-3-3-3-3\2-2-2-2\1-1-1-1-0-0-0-0--0-0-0-0--0-0-0-0--0-0-0-0-|

E-------------------------------------|
B-------------------------------------|
G-9-9-9-9--9-9-9-9--9-9-9-9--9-9-9-9\-|
D-9-9-9-9--9-9-9-9--9-9-9-9--9-9-9-9\-|
A-7-7-7-7--7-7-7-7--7-7-7-7--7-7-7-7\-|
E-------------------------------------|

  Guitar 1
E[------------------------------------|
B[------------------------------------|
G[-5-5-5-5--5-5-5-5--5-5-5-5--5-5-5-5-|
D[-5-5-5-5--5-5-5-5--5-5-5-5--5-5-5-5-|
A[-3-3-3-3--3-3-3-3--3-3-3-3--3-3-3-3-|
E[------------------------------------|
 [Guitar 2
E[------------------------------------|
B[-8-8-8-8--8-8-8-8--8-8-8-8--8-8-8-8-|
G[------------------------------------|
D[------------------------------------|
A[------------------------------------|
E[------------------------------------|

  Guitar 1
E[-----------------------------------------------------------|
B[-----------------------------------------------------------|
G[-----------------------------------------------------------|
D[-5-5-5-5-5-5-5-5\4-4-4-4\3-3-3-3-9--------(9)-----x-7\6\5\-|
A[-5-5-5-5-5-5-5-5\4-4-4-4\3-3-3-3-7--------(7)-----x-5\4\3\-|
E[-3-3-3-3-3-3-3-3\2-2-2-2\1-1-1-1-0--------(0)--------------|
 [Guitar 2
E[-----------------------------------------------------------|
B[-----------------------------------------------------------|
G[-7-7-7-7-7-7-7-7\6-6-6-6\5-5-5-5---------------------------|
D[-----------------------------------------------------------|
A[-----------------------------------------------------------|
E[-----------------------------------------------------------|

 Guitar solo

  B
  ~~~~~~~~~~~~~                    ph~~~         ph~~~~~~~~t 
E--------------------------------------------------------------|
B--------------------------------------------------10b---------|
G-4-----7------4-2-----------4p2--------------9b-7-----9b--15--|
D------------------4-3-2-0-------4---2b-2p0--------------------|
A--------------------------2-------2--------2------------------|
E--------------------------------------------------------------|

  E                      C
   ~~~~~~~~~~~~~~~~~~~~~~~
E--------------------------------------------------|
B---12---12---12---12--12---12---12---12---12--12--|
G-14b--14b--14b--14b-14b--14b--14b--14b--14b-14b---|
D--------------------------------------------------|
A--------------------------------------------------|
E--------------------------------------------------|

  G        F#        F
   ~~~~~~~~~~~~~~~~~~~
E----------------------|
B-14br-p12-15b---------|
G-14br-p12-------------|
D----------------------|
A----------------------|
E----------------------|

  E                                         C
    ~~~~~~t~~~~~
E-------------------12-------------------------------------------|
B------------------------12---12---12----12---12---12---12----12-|
G-4p2b----9------14b---14b--14b--14b--14b---14b--14b--14b--14b---|
D----------------------------------------------------------------|
A----------------------------------------------------------------|
E----------------------------------------------------------------|

  G        F#        F       E
   ~~~~~~~~~~~~~~~~~~~
E---------------------------15p14p12----------------------------|
B-14br-p12-15b-----------------------15p13p12-------------------|
G-14br-p12------------------------------------14p12-------------|
D---------------------------------------------------14-13-12----|
A------------------------------------------------------------12-|
E---------------------------------------------------------------|

                               ~~~~~~
E---------------------------------------|
B-15p13p12------------------------------|
G----------14p12------------------------|
D----------------14p13p12---------------|
A-------------------------12------------|
E----------------------------12-----\---|

E---------------------------------------------------------------|
B---------------------------------------------------------------|
G-9---------------5------------------------------9--------------|
D-9---------------5---------------5------4---3---9--------------|
A-7---------------3---------------5------4---3---7--------------|
E---------------------------------3------2---1------------------| 

E------------------------------------------------------------------|
B------------------------------------------------------------------|
G-9---------------5------------------------------------------------|
D-9---------------5---------------5------4---3---2-------(2)-------|
A-7---------------3---------------5------4---3---2-------(2)-------|
E---------------------------------3------2---1---0-------(0)-------| 

E----------------------------------|
B----------------------------------|
G-9-9-9-9-9-9-9-9-9-9-9-9-9-9-9-9\-|
D-9-9-9-9-9-9-9-9-9-9-9-9-9-9-9-9\-|
A-7-7-7-7-7-7-7-7-7-7-7-7-7-7-7-7\-|
E----------------------------------|

E---------------------------------|
B---------------------------------|
G-5-5-5-5-5-5-5-5-5-5-5-5-5-5-5-5-|
D-5-5-5-5-5-5-5-5-5-5-5-5-5-5-5-5-|
A-3-3-3-3-3-3-3-3-3-3-3-3-3-3-3-3-|
E---------------------------------|

                                    [--PM--] [--PM--]
E-----------------------------------------------------|
B-----------------------------------------------------|
G-----------------------------------------------------|
D-5-5-5-5-5-5-5-5\4-4-4-4\3-3-3-3-9---------9---------|
A-5-5-5-5-5-5-5-5\4-4-4-4\3-3-3-3-7---------7---------|
E-3-3-3-3-3-3-3-3\2-2-2-2\1-1-1-1-0-0-0-0-0-0-0-0-0-0-|

E----------------------------------|
B----------------------------------|
G-9-9-9-9-9-9-9-9-9-9-9-9-9-9-9-9\-|
D-9-9-9-9-9-9-9-9-9-9-9-9-9-9-9-9\-|
A-7-7-7-7-7-7-7-7-7-7-7-7-7-7-7-7\-|
E----------------------------------|

E---------------------------------|
B---------------------------------|
G-5-5-5-5-5-5-5-5-5-5-5-5-5-5-5-5-|
D-5-5-5-5-5-5-5-5-5-5-5-5-5-5-5-5-|
A-3-3-3-3-3-3-3-3-3-3-3-3-3-3-3-3-|
E---------------------------------|

                                    
E---------------------------------|
B---------------------------------|
G---------------------------------|
D-5-5-5-5-5-5-5-5\4-4-4-4\3-3-3-3-|
A-5-5-5-5-5-5-5-5\4-4-4-4\3-3-3-3-|
E-3-3-3-3-3-3-3-3\2-2-2-2\1-1-1-1-|

                                              h h h h h h
E---------------------------------------------------------|
B---------------------------------------------------------|
G-7-------------------(7)---------------------------------|
D-7-------------------(7)---------------------------------|
A-5-------------------(5)---------------------------5-6-7-|
E---------------------------------------------5-6-7-------|

 Rpt Main Riff 7 X

 Lead fills
   ~~~~~~
E-12--------|
B-15b-------|
G-----------|
D-----------|
A-----------|
E-----------| Rpt 4 X

    [----------PM---------]     
E----------------------------------------------------------------------|
B----------------------------------------------------------------------|
G---------------------------7--7--7--(7)--4--4--4--(4)--2--2--2--(2)---|
D-9-----------101010101010--7--7--7--(7)--4--4--4--(4)--2--2--2--(2)---|
A-7-----------8-8-8-8-8-8---5--5--5--(5)--2--2--2--(2)--0--0--0--(0)---|
E---0-0-0-0-0----------------------------------------------------------|

  Guitar 1-
E[-------------------------------------------------------------------|
B[--------------------------------------------------------------------|
G[--------------------------------------------------------------------|
D[-2-----------------------------(2)-------------------------------9\-|
A[-2-----------------------------(2)-------------------------------7\-|
E[-0-----------------------------(0)-------------------------------0--|
 [Guitar 2
 [  ~~~~~~    PM  ~~~~~~~    PM   PM   ~~~~~~~~~~~~~~~~~~~~~~~~~~~~
E[--------3-0---------------------------------------------------------|
B[------------3-0-----------------------------------------------------|
G[-2b-------------4b4b---rp2------------------------------------------|
D[---------------------------2p0---0-------------------------------2\-|
A[-------------------------------2---2-----------------------------2\-|
E[-------------------------------------3------b----r--trem dive----0--|


END

Composição de Bernard Bonvoisin / Norbert Krief
452 exibições
    • ½ Tom
    • A
    • Bb
    • B
    • C
    • Db
    • D
    • Eb
    • E
    • F
    • F#
    • G
    • Ab
  • Adicionar à lista

    0 comentários

    Ver todos os comentários

    Conseguiu tocar?

    0 Tocaram 0 Ainda não

    Grave um vídeo tocando Sects e nos envie!

    00:00 / 00:00
    Outros vídeos desta música
    Repetir Qualidade Automático
    Outros vídeos desta música
    00:00 / 00:00
    Automático

    Cifra Club Pro

    Aproveite o Cifra Club com benefícios exclusivos e sem anúncios
    Cifra Club Pro
    Aproveite o Cifra Club com benefícios exclusivos e sem anúncios
    OK