Cifra Club

Aprenda

Camisa Listrada

Antony e Gabriel

Cifra: Principal (violão e guitarra)
tom: Db (forma dos acordes no tom de C) Capotraste na 1ª casa
[Intro]  C

E|-3------------3------------|
B|---5-3----------5-3--------|
G|-------5-4--5--------------|
D|---------------------------|
A|---------------------------|
E|---------------------------|

       C
Você é linda toda maquiada
 Ou com a camisa listrada
 Do meu guarda roupa
                   Am
 Que eu não uso mais
 Você na minha cama
 Acordando de pijama ou pronta pra sair
 Pra mim tanto faz
  F
 Sou louco por você de noite ou de manha
                                      G
 E aí se for clichê mulher eu sou seu fã
 F         G
Uuuuuuuh
               C
Eu amo o seu cabelo seu olhar me da um gelo sua boca tem um doce mel  
  Am                                                                       F
 O som da sua voz me acalma amor e só pensar em nós me faz fazer papel de bobo
                                         G          G
 Lá vou eu aí de novo dizer que sou seu fã, de novo

 Am            F                     C
Te quero todo dia cada dia quero um pouco mais
    G
 Aumenta a dose de você
   Am             F                       C
 Fiquei completo certo que esse bem é só você quem faz
    G
 Por isso quero te dizer
  Dm             F                   C      G
 Pra essa vida a dois amor não tem vacina  aaah 
             G                      C
 Então se depender de mim vai ser rotina

Solo : 2 Tempo cada Nota ( C Am ) Final do solo : Meio tempo ( F G)

[Solo]

E|----------------------------------|
B|--8-8-5-5-3-3-------3-3~5---------|
G|--------------5-4-5---------------|
D|----------------------------------|
A|----------------------------------|
E|----------------------------------|

E|----------------------------------|
B|--8-8-5-5-3-3-------3-------------|
G|--------------5-4-5---4~2---------|
D|----------------------------------|
A|----------------------------------|
E|----------------------------------|

E|----------------------------------|
B|--8-8-5-5-3-3-------3-3~5---------|
G|--------------5-4-5---------------|
D|----------------------------------|
A|----------------------------------|
E|----------------------------------|

E|----------------------------------|
B|--8-8-5-5-3-3-------3-------------|
G|--------------5-4-5---2-4-4~5-4~--|
D|----------------------------------|
A|----------------------------------|
E|----------------------------------|

         C
 Você é linda quando tem ciúme fala brava
 Quando aumenta o volume sobe o tom de voz
Am
 E esse seu sorriso, esse seu perfume vicio desejo feroz,
F
 Sou louco por você de noite ou de manhã
                                      G
 E ai se for clichê, mulher eu sou seu fã
Composição de MURILO MOURA / PABLO AIRAM
Colaboração e revisão:
63.898 exibições
    • ½ Tom
    • A
    • Bb
    • B
    • C
    • Db
    • D
    • Eb
    • E
    • F
    • F#
    • G
    • Ab
  • Adicionar à lista

    0 comentários

    Ver todos os comentários
    00:00 / 00:00
    outros vídeos desta música
    repetir qualidade Automático
    Outros vídeos desta música
    00:00 / 00:00
    Automático

    Cifra Club Pro

    Aproveite o Cifra Club com benefícios exclusivos e sem anúncios
    Cifra Club Pro
    Aproveite o Cifra Club com benefícios exclusivos e sem anúncios
    OK