Cifra Club

Corinthians

Apologetix

Cifra: Principal (violão e guitarra)
Selo Cifra Club: esta cifra foi revisada para atender aos critérios oficiais da nossa Equipe de Qualidade.
tom: F#
Intro Guitar or Piano

E-------------------------------------------------|
B-------------------------------------------------|
G---3-3-------------------------------------------|
D-1------4-3-3-3-3-4-1----------------------------|
A-------------------------------------------------|
E-------------------------------------------------|

Piano Type=Cb Gb Gb D# D D D D D# Cb

Intro

Chorus

E-------------------------------------------------|
B-------------------------------------------------|
G-3----6---------8----3----6----------------------|
D-1----4----6----6----1----4----6----4------------|
A-----------4-------------------4----2------------|
E-------------------------------------------------|

Intro

Chorus

Intro

ChorusX2

Intro 
Outros vídeos desta música
    1.462 exibições
      • ½ Tom
      • A
      • Bb
      • B
      • C
      • Db
      • D
      • Eb
      • E
      • F
      • F#
      • G
      • Ab
    • Adicionar à lista

    Afinação da cifra

    Afinador online

      0 comentários

      Ver todos os comentários

      Entre para o Cifra Club PRO

      Tenha acesso a benefícios exclusivos no App e no Site

      • Chega de anúncios

      • Badges exclusivas

      • Mais recursos no app do Afinador

      • Atendimento Prioritário

      • Aumente seu limite de lista

      • Ajude a produzir mais conteúdo

      Cifra Club Pro

      Aproveite o Cifra Club com benefícios exclusivos e sem anúncios
      Cifra Club Pro
      Aproveite o Cifra Club com benefícios exclusivos e sem anúncios
      Ops (: Contenido disponible sólo en portugués.
      OK