Cifra Club

Jcs Mom

Apologetix

Cifra: Principal (violão e guitarra)
Selo Cifra Club: esta cifra foi revisada para atender aos critérios oficiais da nossa Equipe de Qualidade.
tom: G
VERSE- palm muted-
|-------------------------------------------|
|----------------------------------*--------|
|----------------------------------9--------|
|----------------------------------9--- X 6-|
|-------------------6-7------------7--------|
|-0-0-0-5-5-5-5-5-7-----5-5-5-5-5-----------|
*non muted

(palm muted)
|-------------------------------------|
|-------------------------------------|
|-------------------------------------|
|-7-7-7-7-7-7-7-7---6-7-7-7-7-7-7-----|
|-0-0-0-5-5-5-5-5-7-----5-5-5-5-5-----|

|-------------------------------------|
|-------------------------------------|
|-------------------------------------|
|----------------------------------9--|   X4
|-7-7-7-7-7-7-7-7---6-7-7-7-7-7-7--7--|
|-0-0-0-5-5-5-5-5-7-----5-5-5-5-5-----|


PRECHORUS
|------------------------------------|
|------------------------------------|
|------------------------------------|
|-6-6-6-6-6-6-6-6-7-7-7-7-7-7-7-7----|
|-6-6-6-6-6-6-6-6-7-7-7-7-7-7-7-7----|
|-4-4-4-4-4-4-4-4-5-5-5-5-5-5-5-5----|

|------------------------------------|
|------------------------------------|
|------------------------------------|
|-6-6-6-6-6-6-6-6-7-7-7-7-7----------|
|-6-6-6-6-6-6-6-6-7-7-7-7-7----------|
|-4-4-4-4-4-4-4-4-5-5-5-5-5----------|

CHORUS (Listen for strum timing)
|-------------------------------------|
|-------------------------------------|
|-2-2-2------------4--4-4/6-6---------|
|-2-2-2--2--2-2----4--4-4/6-6---------| x 2
|-0-0-0--2--2-2----2--2-2/4-4---------|
|--------0--0-0-----------------------|

|-------------------------------------|
|-------------------------------------|
|-2-2-2------------5-5-5/6-6----------|
|-2-2-2--2--2-2----5-5-5/6-6----------|
|-0-0-0--2--2-2----3-3-3/4-4----------|
|--------0--0-0-----------------------|

|-------------------------------------|
|-------------------------------------|
|-2-2-2-2-2-2-2-2-4-4-4-4-4-4-4-4-----|
|-2-2-2-2-2-2-2-2-4-4-4-4-4-4-4-4-----|
|-0-0-0-0-0-0-0-0-2-2-2-2-2-2-2-2-----|
|-------------------------------------|

VERSE 2:
same as first verse. Finger-pick Em, Am, and Bb in the background)

SOLO
|-----------------------------------------------|
|-----------------------------------------------|
|-5h7-7s9-7-5-----------------------------------|
|--------------5--7--7--7p5--9------7p5---------|
|-----------------------------------------------|
|-----------------------------------------------|

|-----------------------------------------------|
|-----------------------------------------------|
|-5h7-7s9-7-5----4-5-4-5-4-5-4-5----------------|
|--------------5--------------------------------|
|-----------------------------------------------|
|-----------------------------------------------|

|-----------------------------------------------|
|-----------------------------------------------|
|-5h7-7s9-7-5-----------------------------------|
|--------------5--7--7--7p5--9------7p5---------|
|-----------------------------------------------|
|-----------------------------------------------|

|------------------------------------------------|
|-0-0-0-0-0-0-0-0-0-0-0-0-0-0-0-0----------------|
|-4-5-4-5-4-5-4-5-8-9-8-9-8-9-8-9----------------|
|------------------------------------------------|
|------------------------------------------------|
|------------------------------------------------|


Final Chorus (and background to solo)
|-----------------------------------|
|-----------------------------------|
|-5-5-5---------7--7-7/9-9----------|
|-5-5-5-5---5-5-7--7-7/9-9----------|   X 2
|-3-3-3-5---5-5-5--5-5/7-7----------|
|-------3---3-3---------------------|

|-----------------------------------|
|-----------------------------------|
|-5-5-5---------8--8-8/9-9----------|
|-5-5-5-5---5-5-8--8-8/9-9----------|
|-3-3-3-5---5-5-6--6-6/7-7----------|
|-------3---3-3---------------------|

|-----------------------------------|
|-----------------------------------|
|-5-5-5-5-5-5-5-5-7-7-7-7-7-7-7-7---|
|-5-5-5-5-5-5-5-5-7-7-7-7-7-7-7-7---|
|-3-3-3-3-3-3-3-3-5-5-5-5-5-5-5-5---|
|-----------------------------------|
Outros vídeos desta música
    387 exibições
      • ½ Tom
      • A
      • Bb
      • B
      • C
      • Db
      • D
      • Eb
      • E
      • F
      • F#
      • G
      • Ab
    • Adicionar à lista

    Afinação da cifra

    Afinador online

      0 comentários

      Ver todos os comentários

      Entre para o Cifra Club PRO

      Tenha acesso a benefícios exclusivos no App e no Site

      • Chega de anúncios

      • Badges exclusivas

      • Mais recursos no app do Afinador

      • Atendimento Prioritário

      • Aumente seu limite de lista

      • Ajude a produzir mais conteúdo

      Cifra Club Pro

      Aproveite o Cifra Club com benefícios exclusivos e sem anúncios
      Cifra Club Pro
      Aproveite o Cifra Club com benefícios exclusivos e sem anúncios
      Ops (: Contenido disponible sólo en portugués.
      OK