Cifra Club

Aprenda

Alones

Aqua Timez

Cifra: Principal (violão e guitarra)
Tom: C
*Standard tuning

Riff (arpeggio):
E|-------------------------------------------------------------------|
B|-----1-------1-------3-0-----0-------1-------0-------1-------3-0---|
G|---0---0---2---2---0-------1---1---2---2---0---0---2---2---0-------|
D|-------------------------------------------------------------------|
A|-3-------------------------------0---------------------------------|
E|---------1--------3------0---------------0-------1-------3---------|

Solo 1#
E|------------------------------------------|
B|------------------------------------------|
G|------------------------------------------|
D|---5---7---7~9---4---5---5~12-------------|
A|---3---5---5~7---2---3---3~10-------------|
E|------------------------------------------|

Solo 2#
E|---------0-------0-------0-------0-------0-------0-------0-------0-|
B|-----1-3-----1-3-----1-3-----1-3-----1-3-----1-3-----0-3-----0-3---|
G|---0-------0-------0-------0-----------------------0-------0-------|
D|-----------------------------------3-------3-----------------------|
A|-------------------------------------------------------------------|
E|-------------------------------------------------------------------|

Solo 3#
E|-------------------------------------------------------------------|
B|-------------------------------------------------------------------|
G|---10--9---5---5~7---12--------------------------------------------|
D|-------------------------------------------------------------------|
A|---8---7---3---3~5---10--------------------------------------------|
E|-------------------------------------------------------------------|

Solo 4#
E|-------------------------------------------------------------------|
B|-------------------------------------------------------------------|
G|---9---12---10--9---7---4---5---7---5---4---5---7---5---7---9---10-|
D|-------------------------------------------------------------------|
A|---7---10---8---7---5---2---3---5---3---2---3---5---3---5---7---8--|
E|-------------------------------------------------------------------|

(Chorus with riff):
   C    F              G
Oreta awai tsubasa
  E        Am    Em
Kimi wa sukoshi aosugiru
   F        G         C
Sora ni tsukareta dake sa
 F        G    E       Am
Mou dareka no tame janakute
  Em       F      G      Am*    G
Jibun no tame ni waratte ii yo

Solo1#

(Solo #2)
C                          G
   Izen to toshi no bion ga toutsuu
                        F
   Uchigawa ni tomaru ga osoku
                    G
   Toki wa ubau ni koukanosha

   Un ga arya to wa urahara ni
C                  G
   Tarinai kotoba no hitomi
                          F
   No ma ni de umetanain darou
        G
   Mou wakaranai yo

(repeat solo 1#):
Am           Em
Semete umero, wakatta?
   F
Jiyuu ni oyogetara
       C
Anna sora mo iranai no ni

(repeat solo 1#):
Am           Em
Kinou made no koto wo
F
Iitsubusanakutemo
 G
Asu ni mukaeru no ni

(Chorus with solo #4):
   C    F              G
Oreta awai tsubasa
  E        Am    Em
Kimi wa sukoshi aosugiru
  F         G         C
Sora ni tsukareta dake sa
 F        G    E       Am
Mou dareka no tame janakute
  Em       F      G         C
Jibun no tame ni waratte ii yo
Composição de Aqua Timez
Colaboração e revisão:
  • Jonathan Barbosa
  • William Mauricio
  • Paulo
40.020 exibições
    • ½ Tom
    • A
    • Bb
    • B
    • C
    • Db
    • D
    • Eb
    • E
    • F
    • F#
    • G
    • Ab
  • Adicionar à lista

    0 comentários

    Mostrar mais comentários

    Conseguiu tocar?

    12 Tocaram 1 Ainda não

    Grave um vídeo tocando Alones e mande pra gente!

    00:00 / 00:00
    outros vídeos desta música
    repetir qualidade Automático
    Outros vídeos desta música
    00:00 / 00:00
    Automático
    OK