Cifra Club

Araketu É Bom Demais

Araketu

Cifra: Principal (violão e guitarra)
tom: A
Intro:

A  F#7(4/9)  F#m7  D7M(9)  D  D/E

A  E/G#  F#m7  D  D/E (2x)

Primeira parte:

                 A
Não dá prá esconder
          E/G#        F#m7  A/E
O que eu sinto por você Ara
     D       D/E             A
Não dá, não dá, não dá, não dá

     D/E         A
Não dá prá esconder
          E/G#        F#m7  A/E
O que eu sinto por você Ara
     D       D/E             A
Não dá, não dá, não dá, não dá

Segunda Parte:

       Bm7
Só sei
                  C#m7
Que o corpo estremece
    D            Bm7
As pernas desobedecem
   D/E                     A
Inconscientemente a gente dança
       Bm7              C#m7
As mãozinhas então embalançam
        D              Bm7
Quando passa eu vou atrás
    D/E
Só sei
                        A
Que o Ara Ketu é bom demais

Primeira parte:

     D/E         A
Não dá prá esconder
          E/G#        F#m7  A/E
O que eu sinto por você Ara
     D       D/E             A
Não dá, não dá, não dá, não dá

     D/E         A
Não dá prá esconder
          E/G#        F#m7  A/E
O que eu sinto por você Ara
     D       D/E             A
Não dá, não dá, não dá, não dá

Segunda Parte:

       Bm7
Só sei
                  C#m7
Que o corpo estremece
    D            Bm7
As pernas desobedecem
   D/E                     A
Inconscientemente a gente dança
       Bm7              C#m7
As mãozinhas então embalançam
        D              Bm7
Quando passa eu vou atrás
    D/E
Só sei
                        A
Que o Ara Ketu é bom demais

Refrão 2x:

A     E/G#
Ê ô.. Ê ô..
D           D/E
Ê a ê a ô.. Ê a ê a ô 

Terceira Parte:

    A                    E/G#    F#m7
Dancei, eu quebrei balancei, vibrei
               C#m7   D  Bm7
O Ara Ketu me fez dançar
            D/E
Bota as mãozinhas pra o ar

    A                    E/G#    F#m7
Dancei, eu quebrei balancei, vibrei
               C#m7   D  Bm7
O Ara Ketu me fez dançar
            D/E
Bota as mãozinhas pra o ar

Refrão 2x:

A     E/G#
Ê ô.. Ê ô..
D           D/E
Ê a ê a ô.. Ê a ê a ô 

Base Solo 2x:

A  E/G#  F#m7  D  D/E

Terceira Parte:

    A                    E/G#    F#m7
Dancei, eu quebrei balancei, vibrei
               C#m7   D  Bm7
O Ara Ketu me fez dançar
            D/E
Bota as mãozinhas pra o ar

    A                    E/G#    F#m7
Dancei, eu quebrei balancei, vibrei
               C#m7   D  Bm7
O Ara Ketu me fez dançar
            D/E
Bota as mãozinhas pra o ar

Refrão 2x:

A     E/G#
Ê ô.. Ê ô..
D           D/E
Ê a ê a ô.. Ê a ê a ô 

Base Solo Final:

A  E/G#  F#m7  D  D/E (2x)

A

Base Primeira Parte Intro:

    A  F#7(4/9)  F#m7  D7M(9)  D
E|------------------------------------------|
B|-2-----0-------2-2---2------3-3----3-3-3--|
G|-2-----1-------2-2---2------2-2----2-2-2--|
D|-2-----2-------2-2---2------4-4----4-4-4--|
A|-0-------------------5--------5-----------|
E|-------2---------2-----------------0---0--|

Solo Primeira Parte Intro:

Parte 1

E|----------------------------------------------------|
B|----------------------------------------------------|
G|---2---2--2---2-------------------------------------|
D|-2---4------4---------------------------------------|
A|----------------------------------------------------|
E|----------------------------------------------------|

Parte 2

E|----------------------------------------------------|
B|----------------------------------------------------|
G|---2---2--2---2--2--------2-------------------------|
D|-2---4------4------4--2h4---------------------------|
A|----------------------------------------------------|
E|----------------------------------------------------|

Parte 3

E|----------------------------------------------------|
B|----------------------------------------------------|
G|---2---2--2---2-------------------------------------|
D|-2---4------4---------------------------------------|
A|----------------------------------------------------|
E|----------------------------------------------------|

Parte 4

E|----------------------------------------------------|
B|---------------------------5------------------------|
G|---2---2--2---2--2-----4/6--------------------------|
D|-2---4------4------4-2------------------------------|
A|----------------------------------------------------|
E|----------------------------------------------------|

Solo Segunda Parte Intro 2x:

Parte 1

E|----------------------------------------------------|
B|-3p2-0---0-2-0---0--5-5-2-2-------------------------|
G|-------2-------2------------------------------------|
D|----------------------------------------------------|
A|----------------------------------------------------|
E|----------------------------------------------------|

Parte 2

E|----------------------------------------------------|
B|-3p2-0---0-2-0---0--5-5-2-2-0-0---------------------|
G|-------2-------2------------------------------------|
D|----------------------------------------------------|
A|----------------------------------------------------|
E|----------------------------------------------------|

Solo Meio e Final:

Parte 1

E|----------------------------------------------------|
B|-------2----------------2---------------------------|
G|-----2---4-2-1---2----2---4-2-1h2p1---4/6-----------|
D|---2-----------4----2---------------4-----4---------|
A|-4--------------------------------------------------|
E|----------------------------------------------------|

Parte 2

E|----------------------------------------------------|
B|-------------5--------------------------------------|
G|-----2-4-4/6---4h5p4-2------------------------------|
D|-2-4------------------------------------------------|
A|----------------------------------------------------|
E|----------------------------------------------------|

Parte 3

E|----------------------------------------------------|
B|-------2----------------2---------------------------|
G|-----2---4-2-1---2----2---4-2-1h2p1---4/6-----------|
D|---2-----------4----2---------------4-----4---------|
A|-4--------------------------------------------------|
E|----------------------------------------------------|

Parte 4

E|----------------------------------------------------|
B|-------------5--------------------------------------|
G|-----2-4-4/6----------------------------------------|
D|-2-4------------------------------------------------|
A|----------------------------------------------------|
E|----------------------------------------------------|
00:00 / 00:00
Outros vídeos desta música
Repetir
Outros vídeos desta música
Compositor não encontrado.
Colaboração e revisão:
  • Leandro Sandim
61.062 exibições
    • ½ Tom
    • A
    • Bb
    • B
    • C
    • Db
    • D
    • Eb
    • E
    • F
    • F#
    • G
    • Ab
  • Adicionar à lista

    0 comentários

    Ver todos os comentários

    Conseguiu tocar?

    2 Tocaram 3 Ainda não

    Grave um vídeo tocando Araketu É Bom Demais e nos envie!

    Entre para oCifra Club PRO

    Tenha acesso a benefícios exclusivos no App e no Site

    • Chega de anúncios

    • Prioridade de compra em lançamentos

    • Mais recursos no app do Afinador

    • Atendimento Prioritário

    • Descontos nos produtos Cifra Club

    • Ajude a produzir mais conteúdo

    00:00 / 00:00
    Capítulos
    • Tocando a Música
    • Dicas Iniciais / Equipamentos
    • Acordes da Primeira Parte da Intro
    • Tocando a Primeira Parte da Intro
    • Ensinando a Primeira Parte da Intro
    • Acordes da Segunda Parte da Intro
    • Tocando a Segunda Parte da Intro
    • Ensinando Ritmo da Segunda Parte da Intro
    • Acordes da Primeira e Segunda Parte da Música
    • Tocando a Primeira e Segunda Parte da Música
    • Ensinando o Ritmo da Primeira e Segunda Parte
    • Tocando o Refrão
    • Dicas para a Terceira Parte
    • Tocando a Terceira Parte
    • Tocando Solo da Primeira Parte da Intro
    • Mostrando o Solo da Primeira Parte da Intro
    • Solo da Primeira Parte - Parte 1 de 4
    • Solo da Primeira Parte - Parte 2 de 4
    • Solo da Primeira Parte - Parte 3 de 4
    • Solo da Primeira Parte - Parte 4 de 4
    • Tocando Solo da Segunda Parte da Intro
    • Mostrando o Solo da Segunda Parte da Intro
    • Solo da Segunda Parte - Parte 1 de 2
    • Solo da Segunda Parte - Parte 2 de 2
    • Tocando o Solo do Meio e Final
    • Mostrando o Solo
    • Solo - Parte 1 de 4
    • Solo - Parte 2 de 4
    • Solo - Parte 3 de 4
    • Solo - Parte 4 de 4
    • Encerramento
    • Ficha Técnica / Erros de Gravação

    Cifra Club Pro

    Aproveite o Cifra Club com benefícios exclusivos e sem anúncios
    Cifra Club Pro
    Aproveite o Cifra Club com benefícios exclusivos e sem anúncios
    OK