Cifra Club

Cobertor

Araketu

Cifra: Principal (violão e guitarra)
tom: C
[Intro] C7  F  C  Am  Dm  G  C

E|-15-15-13-13-12-12----12p13h12---------------------------13-------------17-16-15---|
B|-------------------15----------15-13----13-------13----13-----15p-16-13----------17|
G|-------------------------------------14----14-14----14-----------------------------|
D|-----------------------------------------------------------------------------------|
A|-----------------------------------------------------------------------------------|
E|-----------------------------------------------------------------------------------|

E|-16-15---------15-------------------17s-17-15----------15-----------------12------10-|
B|-------17-16----17-16-15-17-16-15-----------17-15-17----15s-15-13--------------------|
G|------------------------------------------------------------------| 10h12----9h10-|
D|-------------------------------------------------------------------------------------|
A|-------------------------------------------------------------------------------------|
E|-------------------------------------------------------------------------------------|

E|-----8--------------|
B|--------------------|
G|-8h9----------------|
D|--------------------|
A|--------------------|
E|--------------------|

                      F
Como é que você foi embora
                      C    F C
Sem dizer pelo menos adeus
                     Dm
Me fez sofrer tanto assim
      F         G          C   F C C7
O coração apaixonado por você?
                       F
Como é que você depois liga
                          C    F C  
Pra dizer que está arrependida
                      Dm
E foi embora, mas que vai voltar
        F           G           C    E7
Pedindo pro meu coração o seu lugar?
        Am
Ah, ah, ah, que pena, o meu coração
           Em
Não é mais meu!
                                 F
Mesmo que fosse nunca mais seria seu
        Dm                            G
Você se foi, nem quis saber se estava frio
   F          G
Eu achei cobertor
       E7         Am
Que me deu tanto amor
      F             Dm
E que nunca deixa o frio
      G        C   F C C7
Tomar conta de mim
00:00 / 00:00
Outros vídeos desta música
Repetir
Outros vídeos desta música
Composição de Chrystian
163.752 exibições
    • ½ Tom
    • A
    • Bb
    • B
    • C
    • Db
    • D
    • Eb
    • E
    • F
    • F#
    • G
    • Ab
  • Adicionar à lista

    0 comentários

    Ver todos os comentários

    Conseguiu tocar?

    9 Tocaram 1 Ainda não

    Grave um vídeo tocando Cobertor e nos envie!

    Entre para oCifra Club PRO

    Tenha acesso a benefícios exclusivos no App e no Site

    • Chega de anúncios

    • Prioridade de compra em lançamentos

    • Mais recursos no app do Afinador

    • Atendimento Prioritário

    • Descontos nos produtos Cifra Club

    • Ajude a produzir mais conteúdo

    00:00 / 00:00

    Cifra Club Pro

    Aproveite o Cifra Club com benefícios exclusivos e sem anúncios
    Cifra Club Pro
    Aproveite o Cifra Club com benefícios exclusivos e sem anúncios
    OK