Cifra Club

Black Blood

Architects

Cifra: Principal (violão e guitarra)
Selo Cifra Club: esta cifra foi revisada para atender aos critérios oficiais da nossa Equipe de Qualidade.
tom: Db
C#||-------------E|E|E|E|E|---------------|----------|
G#||--------------<>12--<>12--------------|
E ||-------------E|E|E|E|E|---------------|----------|
B ||--9--9E|---------------|-----------9--9--|
F#||--7--7E|---------------|-----------7--7--|
C#||--------0--0--------------0--0--------|


  PM PM    NH    NH PM PM  PM PMPM PM PM PM P
  S  S     E     E  S  S   S  S S  S  S  S  S
E|E|---------------|------E|E|E|E|E|---------------|----------|
B|--------<>12--<>12---E|E|E|E|E|---------------|----------|
G|E|---------------|-----------12-12E|---------------||
D|E|---------------|E|---------------|--9--9--7--7--9-|
A|E|---------------|------E|E|E|E|E|---------------|----------|
E|--0--0--------------0--0E|---------------|-------|


          PM PM    NH    NH PM PM
   E   E  S  S     E     E  S  S   E   E
E|E|---------------|--E|E|E|E|E|---------------|----------|
B|E|---------------|-<>12--<>12E|---------------|-|
G|E|---------------|--E|E|E|E|E|---------------|----------|
D|--10--10E|---------------|-----------10--10--|
A|---7---7E|---------------|------------7---7--|
E|----------0--0--------------0--0----------|


  PM PM    NH    NH PM PM PM PM PM PM  PM PM
  S  S     E     E  S  S  S  S  S  S   S  S
E|E|---------------|------E|E|E|E|E|---------------|----------|
B|--------<>12--<>12---E|E|E|E|E|---------------|----------|
G|E|---------------|E|---------------|--------12-12---|
D|E|---------------|-----------9--9--------------1-|
A|E|---------------|E|---------------|--7--7----------|
E|--0--0--------------0--0E|---------------|-------|


        PM PM    NH    NH PM PM
  E  E  S  S     E     E  S  S  E  E
E|-------------E|E|E|E|E|---------------|----------|
B|--------------<>12--<>12--------------|
G|-------------E|E|E|E|E|---------------|----------|
D|--9--9E|---------------|-----------9--9--|
A|--7--7E|---------------|-----------7--7--|
E|--------0--0--------------0--0--------|


  PM PM    NH    NH PM PM  PM PMPM PM PM PM P
  S  S     E     E  S  S   S  S S  S  S  S  S
E|E|---------------|------E|E|E|E|E|---------------|----------|
B|--------<>12--<>12---E|E|E|E|E|---------------|----------|
G|E|---------------|-----------12-12E|---------------||
D|E|---------------|E|---------------|--9--9--7--7--9-|
A|E|---------------|------E|E|E|E|E|---------------|----------|
E|--0--0--------------0--0E|---------------|-------|


          PM PM    NH    NH PM PM
   E   E  S  S     E     E  S  S   E   E
E|E|---------------|--E|E|E|E|E|---------------|----------|
B|E|---------------|-<>12--<>12E|---------------|-|
G|E|---------------|--E|E|E|E|E|---------------|----------|
D|--10--10E|---------------|-----------10--10--|
A|---7---7E|---------------|------------7---7--|
E|----------0--0--------------0--0----------|


  PM PM    NH    NH PM PM PM PM PM PM PM
  S  S     E     E  S  S  S  S  S  S  S  S S
E|E|---------------|-----E|E|E|E|E|---------------|----------|
B|--------<>12--<>12--E|E|E|E|E|---------------|----------|
G|E|---------------|-----E|E|E|E|E|---------------|----------|
D|E|---------------|-----E|E|E|E|E|---------------|----------|
A|E|---------------|-----------2--2--2--2--2------|
E|--0--0--------------0--0--0--0--0--0--0------|


  S S S S E   S  S  S  S E  S S S S
E|-----------E|E|E|E|E|---------------|----------|
B|-------------12-12-12-12------------|
G|-----------E|E|E|E|E|---------------|----------|
D|-------------10-10-10-10------------|
A|--7-7-7-7E|---------------|----7-7-7-7-|
E|----------0--------------0----------|


                    PM PM PM PM  PM PMPM PM
  E   S  S  S  S E  S  S  S  S   S  S S  S
E|E|---------------|----E|E|E|E|E|---------------|----------|
B|-----12-12-12-12---E|E|E|E|E|---------------|----------|
G|E|---------------|E|---------------|--11-11-------|
D|-----10-10-10-10----9--9--------------9--9--|
A|E|---------------|-----------7--7--------------|
E|--0--------------0-E|E|E|E|E|---------------|----------|


  S S S S E   S  S  S  S E  S S S S
E|-----------E|E|E|E|E|---------------|----------|
B|-------------12-12-12-12------------|
G|-----------E|E|E|E|E|---------------|----------|
D|-------------10-10-10-10------------|
A|--7-7-7-7E|---------------|----7-7-7-7-|
E|----------0--------------0----------|


                    PM PM PM PM  PM PM PM PM
  E   S  S  S  S E  S  S  S  S   S  S  S  S
E|E|---------------|----E|E|E|E|E|---------------|----------|
B|-----12-12-12-12---E|E|E|E|E|---------------|----------|
G|E|---------------|E|---------------|--12-12-------|
D|-----10-10-10-10----9--9--------------10-10-|
A|E|---------------|-----------7--7--------------|
E|--0--------------0-E|E|E|E|E|---------------|----------|


  S S S S E   S  S  S  S E  S S S S
E|-----------E|E|E|E|E|---------------|----------|
B|-------------12-12-12-12------------|
G|-----------E|E|E|E|E|---------------|----------|
D|-------------10-10-10-10------------|
A|--7-7-7-7E|---------------|----7-7-7-7-|
E|----------0--------------0----------|


                    PM PM PM PM  PM PMPM PM
  E   S  S  S  S E  S  S  S  S   S  S S  S
E|E|---------------|----E|E|E|E|E|---------------|----------|
B|-----12-12-12-12---E|E|E|E|E|---------------|----------|
G|E|---------------|E|---------------|--11-11-------|
D|-----10-10-10-10----9--9--------------9--9--|
A|E|---------------|-----------7--7--------------|
E|--0--------------0-E|E|E|E|E|---------------|----------|


  S S S S E   S  S  S  S E  S S S S
E|-----------E|E|E|E|E|---------------|----------|
B|-------------12-12-12-12------------|
G|-----------E|E|E|E|E|---------------|----------|
D|-------------10-10-10-10------------|
A|--7-7-7-7E|---------------|----7-7-7-7-|
E|----------0--------------0----------|


     PM PM PM PM PM PM PM PM PM PM PM PM PM P
  E  S  S  S  S  S  S  S  S  S  S  S  S  S  S
E|E|---------------|------E|E|E|E|E|---------------|----------|
B|E|---------------|------E|E|E|E|E|---------------|----------|
G|E|---------------|------E|E|E|E|E|---------------|----------|
D|E|---------------|--------5--5--------------9--9-|
A|-----9--9--5--5--9--9--------9--9--5--5-------|
E|--0E|---------------|---E|E|E|E|E|---------------|----------|


  PM PM           PM PM
  S  S  S  S S  S S  S  S  S  S  S E  E
E|E|---------------|-E|E|E|E|E|---------------|----------|
B|E|---------------|-E|E|E|E|E|---------------|----------|
G|E|---------------|-E|E|E|E|E|---------------|----------|
D|--------5p-0-4p-0-------4h-5p-4h---------|
A|E|---------------|E|---------------|---5-7-----|
E|--0--0------------0--0E|---------------|-0--|


  PM PM           PM PM
  S  S  S  S S  S S  S  S  S  S  S S  S  S  S
E|E|---------------|------E|E|E|E|E|---------------|----------|
B|E|---------------|------E|E|E|E|E|---------------|----------|
G|E|---------------|------E|E|E|E|E|---------------|----------|
D|--------5p-0-4p-0-------4h-5p-4h---5h-9p-5h---|
A|E|---------------|E|---------------|---5----------7-|
E|--0--0------------0--0E|---------------|---------|


  PM PM           PM PM            PM PM
  S  S  S  S S  S S  S  S  S  S  S S  S  S  S
E|E|---------------|------E|E|E|E|E|---------------|----------|
B|E|---------------|------E|E|E|E|E|---------------|----------|
G|E|---------------|------E|E|E|E|E|---------------|----------|
D|--------5p-0-4p-0-------4h-5p-4h---------5h-9-|
A|E|---------------|E|---------------|---5------------|
E|--0--0------------0--0-------------0--0-------|


       PM PM PM PM PM PM PM PM PM PM PM PM PM
  S  S S  S  S  S  S  S  S  S  S  S  S  S  S
E|E|---------------|-----E|E|E|E|E|---------------|----------|
B|E|---------------|-----E|E|E|E|E|---------------|----------|
G|E|---------------|-----E|E|E|E|E|---------------|----------|
D|--5hE|---------------|------5--5--------------9-|
A|-----7-9--9--5--5--9--9--------9--9--5--5----|
E|E|---------------|-----E|E|E|E|E|---------------|----------|


  PM PM           PM PM
  S  S  S  S S  S S  S  S  S  S  S E  E
E|E|---------------|-E|E|E|E|E|---------------|----------|
B|E|---------------|-E|E|E|E|E|---------------|----------|
G|E|---------------|-E|E|E|E|E|---------------|----------|
D|--------5p-0-4p-0-------4h-5p-4h---------|
A|E|---------------|E|---------------|---5-7-----|
E|--0--0------------0--0E|---------------|-0--|


  PM PM           PM PM
  S  S  S  S S  S S  S  S  S  S  S S  S  S  S
E|E|---------------|------E|E|E|E|E|---------------|----------|
B|E|---------------|------E|E|E|E|E|---------------|----------|
G|E|---------------|------E|E|E|E|E|---------------|----------|
D|--------5p-0-4p-0-------4h-5p-4h---5h-9p-5h---|
A|E|---------------|E|---------------|---5----------7-|
E|--0--0------------0--0E|---------------|---------|


  PM PM           PM PM            PM PM
  S  S  S  S S  S S  S  S  S  S  S S  S  S  S
E|E|---------------|------E|E|E|E|E|---------------|----------|
B|E|---------------|------E|E|E|E|E|---------------|----------|
G|E|---------------|------E|E|E|E|E|---------------|----------|
D|--------5p-0-4p-0-------4h-5p-4h---------5h-9-|
A|E|---------------|E|---------------|---5------------|
E|--0--0------------0--0-------------0--0-------|


       PM PM PM PM PM PM PM PM PM PM PM PM PM
  S  S S  S  S  S  S  S  S  S  S  S  S  S  S
E|E|---------------|-----E|E|E|E|E|---------------|----------|
B|E|---------------|-----E|E|E|E|E|---------------|----------|
G|E|---------------|-----E|E|E|E|E|---------------|----------|
D|--5hE|---------------|------5--5E|---------------|-|
A|-----7-9--9--5--5--9--9--------9--9--5--5----|
E|E|---------------|E|---------------|-------------7-|


        PM PM    NH    NH PM PM
  E  E  S  S     E     E  S  S  E  E
E|-------------E|E|E|E|E|---------------|----------|
B|--------------<>12--<>12--------------|
G|-------------E|E|E|E|E|---------------|----------|
D|--9--9E|---------------|-----------9--9--|
A|--7--7E|---------------|-----------7--7--|
E|--------0--0--------------0--0--------|


  PM PM    NH    NH PM PM
  S  S     E     E  S  S   E   E   E   E
E|E|---------------|--E|E|E|E|E|---------------|----------|
B|--------<>12--<>12--------12--12--12--12--|
G|E|---------------|--E|E|E|E|E|---------------|----------|
D|E|---------------|-----------10--10--10--10--|
A|E|---------------|--E|E|E|E|E|---------------|----------|
E|--0--0--------------0--0E|---------------|---|


   E   E   E   E   E   E   E   E
E|---------E|E|E|E|E|---------------|----------|
B|---------E|E|E|E|E|---------------|----------|
G|--11--11--11--11--11--11--11--11--|
D|---9---9---9---9---9---9---9---9--|
A|---7---7---7---7---7---7---7---7--|
E|---0---0---0---0---0---0---0---0--|


   E   E   E   E   E   E   E   E
E|---------E|E|E|E|E|---------------|----------|
B|---------E|E|E|E|E|---------------|----------|
G|--11--11--11--11--11--11--11--11--|
D|---9---9---9---9---9---9---9---9--|
A|---7---7---7---7---7---7---7---7--|
E|---0---0---0---0---0---0---0---0--|


  E  E  E  E  E  E  E  E
E|-E|E|E|E|E|---------------|----------|
B|--7--7--7--7--7--7--7--7--|
G|-E|E|E|E|E|---------------|----------|
D|--7--7--7--7--7--7--7--7--|
A|--7--7--7--7--7--7--7--7--|
E|--5--5--5--5--5--5--5--5--|


  E  E  E  E  E  E  E  E
E|-E|E|E|E|E|---------------|----------|
B|--7--7--7--7--7--7--7--7--|
G|-E|E|E|E|E|---------------|----------|
D|--7--7--7--7--7--7--7--7--|
A|--7--7--7--7--7--7--7--7--|
E|--5--5--5--5--5--5--5--5--|


   E   E   E   E   E   E   E   E
E|---------E|E|E|E|E|---------------|----------|
B|---------E|E|E|E|E|---------------|----------|
G|--11--11--11--11--11--11--11--11--|
D|--10--10--10--10--10--10--10--10--|
A|--10--10--10--10--10--10--10--10--|
E|---8---8---8---8---8---8---8---8--|


   E   E   E   E   E   E   E   E
E|---------E|E|E|E|E|---------------|----------|
B|---------E|E|E|E|E|---------------|----------|
G|--11--11--11--11--11--11--11--11--|
D|--10--10--10--10--10--10--10--10--|
A|--10--10--10--10--10--10--10--10--|
E|---8---8---8---8---8---8---8---8--|


  E  E  E  E  E  E  E  E
E|-E|E|E|E|E|---------------|----------|
B|--7--7--7--7--7--7--7--7--|
G|--7--7--7--7--7--7--7--7--|
D|--7--7--7--7--7--7--7--7--|
A|--5--5--5--5--5--5--5--5--|
E|-E|E|E|E|E|---------------|----------|


  E  E  E  E  E  E  E  E
E|-E|E|E|E|E|---------------|----------|
B|--7--7--7--7--7--7--7--7--|
G|--7--7--7--7--7--7--7--7--|
D|--7--7--7--7--7--7--7--7--|
A|--5--5--5--5--5--5--5--5--|
E|-E|E|E|E|E|---------------|----------|


  S S S S E   S  S  S  S E  S S S S
E|-----------E|E|E|E|E|---------------|----------|
B|-------------12-12-12-12------------|
G|-----------E|E|E|E|E|---------------|----------|
D|-------------10-10-10-10------------|
A|--7-7-7-7E|---------------|----7-7-7-7-|
E|----------0--------------0----------|


                    PM PM PM PM  PM PMPM PM
  E   S  S  S  S E  S  S  S  S   S  S S  S
E|E|---------------|----E|E|E|E|E|---------------|----------|
B|-----12-12-12-12---E|E|E|E|E|---------------|----------|
G|E|---------------|E|---------------|--11-11-------|
D|-----10-10-10-10----9--9--------------9--9--|
A|E|---------------|-----------7--7--------------|
E|--0--------------0-E|E|E|E|E|---------------|----------|


  S S S S E   S  S  S  S E  S S S S
E|-----------E|E|E|E|E|---------------|----------|
B|-------------12-12-12-12------------|
G|-----------E|E|E|E|E|---------------|----------|
D|-------------10-10-10-10------------|
A|--7-7-7-7E|---------------|----7-7-7-7-|
E|----------0--------------0----------|


                    PM PM PM PM  PM PM PM PM
  E   S  S  S  S E  S  S  S  S   S  S  S  S
E|E|---------------|----E|E|E|E|E|---------------|----------|
B|-----12-12-12-12---E|E|E|E|E|---------------|----------|
G|E|---------------|E|---------------|--12-12-------|
D|-----10-10-10-10----9--9--------------10-10-|
A|E|---------------|-----------7--7--------------|
E|--0--------------0-E|E|E|E|E|---------------|----------|


  S S S S E   S  S  S  S E  S S S S
E|-----------E|E|E|E|E|---------------|----------|
B|-------------12-12-12-12------------|
G|-----------E|E|E|E|E|---------------|----------|
D|-------------10-10-10-10------------|
A|--7-7-7-7E|---------------|----7-7-7-7-|
E|----------0--------------0----------|


                    PM PM PM PM  PM PMPM PM
  E   S  S  S  S E  S  S  S  S   S  S S  S
E|E|---------------|----E|E|E|E|E|---------------|----------|
B|-----12-12-12-12---E|E|E|E|E|---------------|----------|
G|E|---------------|E|---------------|--11-11-------|
D|-----10-10-10-10----9--9--------------9--9--|
A|E|---------------|-----------7--7--------------|
E|--0--------------0-E|E|E|E|E|---------------|----------|


  S S S S E   S  S  S  S E  S S S S
E|-----------E|E|E|E|E|---------------|----------|
B|-------------12-12-12-12------------|
G|-----------E|E|E|E|E|---------------|----------|
D|-------------10-10-10-10------------|
A|--7-7-7-7E|---------------|----7-7-7-7-|
E|----------0--------------0----------|


     PM PM PM PM PM PM PM PM PM PM PM PM PM P
  E  S  S  S  S  S  S  S  S  S  S  S  S  S  S
E|E|---------------|------E|E|E|E|E|---------------|----------|
B|E|---------------|------E|E|E|E|E|---------------|----------|
G|E|---------------|------E|E|E|E|E|---------------|----------|
D|E|---------------|--------5--5--------------9--9-|
A|-----9--9--5--5--9--9--------9--9--5--5-------|
E|--0E|---------------|---E|E|E|E|E|---------------|----------|


  PM PM           PM PM
  S  S  S  S S  S S  S  S  S  S  S E  E
E|E|---------------|-E|E|E|E|E|---------------|----------|
B|E|---------------|-E|E|E|E|E|---------------|----------|
G|E|---------------|-E|E|E|E|E|---------------|----------|
D|--------5p-0-4p-0-------4h-5p-4h---------|
A|E|---------------|E|---------------|---5-7-----|
E|--0--0------------0--0E|---------------|-0--|


  PM PM           PM PM
  S  S  S  S S  S S  S  S  S  S  S S  S  S  S
E|E|---------------|------E|E|E|E|E|---------------|----------|
B|E|---------------|------E|E|E|E|E|---------------|----------|
G|E|---------------|------E|E|E|E|E|---------------|----------|
D|--------5p-0-4p-0-------4h-5p-4h---5h-9p-5h---|
A|E|---------------|E|---------------|---5----------7-|
E|--0--0------------0--0E|---------------|---------|


  PM PM           PM PM            PM PM
  S  S  S  S S  S S  S  S  S  S  S S  S  S  S
E|E|---------------|------E|E|E|E|E|---------------|----------|
B|E|---------------|------E|E|E|E|E|---------------|----------|
G|E|---------------|------E|E|E|E|E|---------------|----------|
D|--------5p-0-4p-0-------4h-5p-4h---------5h-9-|
A|E|---------------|E|---------------|---5------------|
E|--0--0------------0--0-------------0--0-------|


       PM PM PM PM PM PM PM PM PM PM PM PM PM
  S  S S  S  S  S  S  S  S  S  S  S  S  S  S
E|E|---------------|-----E|E|E|E|E|---------------|----------|
B|E|---------------|-----E|E|E|E|E|---------------|----------|
G|E|---------------|-----E|E|E|E|E|---------------|----------|
D|--5hE|---------------|------5--5--------------9-|
A|-----7-9--9--5--5--9--9--------9--9--5--5----|
E|E|---------------|-----E|E|E|E|E|---------------|----------|


  PM PM           PM PM
  S  S  S  S S  S S  S  S  S  S  S E  E
E|E|---------------|-E|E|E|E|E|---------------|----------|
B|E|---------------|-E|E|E|E|E|---------------|----------|
G|E|---------------|-E|E|E|E|E|---------------|----------|
D|--------5p-0-4p-0-------4h-5p-4h---------|
A|E|---------------|E|---------------|---5-7-----|
E|--0--0------------0--0E|---------------|-0--|


  PM PM           PM PM
  S  S  S  S S  S S  S  S  S  S  S S  S  S  S
E|E|---------------|------E|E|E|E|E|---------------|----------|
B|E|---------------|------E|E|E|E|E|---------------|----------|
G|E|---------------|------E|E|E|E|E|---------------|----------|
D|--------5p-0-4p-0-------4h-5p-4h---5h-9p-5h---|
A|E|---------------|E|---------------|---5----------7-|
E|--0--0------------0--0E|---------------|---------|


  PM PM           PM PM            PM PM
  S  S  S  S S  S S  S  S  S  S  S S  S  S  S
E|E|---------------|------E|E|E|E|E|---------------|----------|
B|E|---------------|------E|E|E|E|E|---------------|----------|
G|E|---------------|------E|E|E|E|E|---------------|----------|
D|--------5p-0-4p-0-------4h-5p-4h---------5h-9-|
A|E|---------------|E|---------------|---5------------|
E|--0--0------------0--0-------------0--0-------|


       PM PM PM PM PM PM PM PM PM PM PM PM PM
  S  S S  S  S  S  S  S  S  S  S  S  S  S  S
E|E|---------------|-----E|E|E|E|E|---------------|----------|
B|E|---------------|-----E|E|E|E|E|---------------|----------|
G|E|---------------|-----E|E|E|E|E|---------------|----------|
D|--5hE|---------------|------5--5E|---------------|-|
A|-----7-9--9--5--5--9--9--------9--9--5--5----|
E|E|---------------|E|---------------|-------------7-|


  PM PM           PM PM
  S  S  S  S S  S S  S  S  S  S  S E  E
E|E|---------------|-E|E|E|E|E|---------------|----------|
B|E|---------------|-E|E|E|E|E|---------------|----------|
G|E|---------------|-E|E|E|E|E|---------------|----------|
D|--------5p-0-4p-0-------4h-5p-4h---------|
A|E|---------------|E|---------------|---5-7-----|
E|--0--0------------0--0E|---------------|-0--|


  PM PM           PM PM
  S  S  S  S S  S S  S  S  S  S  S S  S  S  S
E|E|---------------|------E|E|E|E|E|---------------|----------|
B|E|---------------|------E|E|E|E|E|---------------|----------|
G|E|---------------|------E|E|E|E|E|---------------|----------|
D|--------5p-0-4p-0-------4h-5p-4h---5h-9p-5h---|
A|E|---------------|E|---------------|---5----------7-|
E|--0--0------------0--0E|---------------|---------|


  PM PM           PM PM            PM PM
  S  S  S  S S  S S  S  S  S  S  S S  S  S  S
E|E|---------------|------E|E|E|E|E|---------------|----------|
B|E|---------------|------E|E|E|E|E|---------------|----------|
G|E|---------------|------E|E|E|E|E|---------------|----------|
D|--------5p-0-4p-0-------4h-5p-4h---------5h-9-|
A|E|---------------|E|---------------|---5------------|
E|--0--0------------0--0-------------0--0-------|


       PM PM PM PM PM PM PM PM PM PM PM PM PM
  S  S S  S  S  S  S  S  S  S  S  S  S  S  S
E|E|---------------|-----E|E|E|E|E|---------------|----------|
B|E|---------------|-----E|E|E|E|E|---------------|----------|
G|E|---------------|-----E|E|E|E|E|---------------|----------|
D|--5hE|---------------|------5--5--------------9-|
A|-----7-9--9--5--5--9--9--------9--9--5--5----|
E|E|---------------|-----E|E|E|E|E|---------------|----------|


  PM PM           PM PM
  S  S  S  S S  S S  S  S  S  S  S E  E
E|E|---------------|-E|E|E|E|E|---------------|----------|
B|E|---------------|-E|E|E|E|E|---------------|----------|
G|E|---------------|-E|E|E|E|E|---------------|----------|
D|--------5p-0-4p-0-------4h-5p-4h---------|
A|E|---------------|E|---------------|---5-7-----|
E|--0--0------------0--0E|---------------|-0--|


  PM PM           PM PM
  S  S  S  S S  S S  S  S  S  S  S S  S  S  S
E|E|---------------|------E|E|E|E|E|---------------|----------|
B|E|---------------|------E|E|E|E|E|---------------|----------|
G|E|---------------|------E|E|E|E|E|---------------|----------|
D|--------5p-0-4p-0-------4h-5p-4h---5h-9p-5h---|
A|E|---------------|E|---------------|---5----------7-|
E|--0--0------------0--0E|---------------|---------|


  PM PM           PM PM            PM PM
  S  S  S  S S  S S  S  S  S  S  S S  S  S  S
E|E|---------------|------E|E|E|E|E|---------------|----------|
B|E|---------------|------E|E|E|E|E|---------------|----------|
G|E|---------------|------E|E|E|E|E|---------------|----------|
D|--------5p-0-4p-0-------4h-5p-4h---------5h-9-|
A|E|---------------|E|---------------|---5------------|
E|--0--0------------0--0-------------0--0-------|


       PM PM PM PM PM PM PM PM PM PM PM PM PM
  S  S S  S  S  S  S  S  S  S  S  S  S  S  S
E|E|---------------|-----E|E|E|E|E|---------------|----------|
B|E|---------------|-----E|E|E|E|E|---------------|----------|
G|E|---------------|-----E|E|E|E|E|---------------|----------|
D|--5hE|---------------|------5--5E|---------------|-|
A|-----7-9--9--5--5--9--9--------9--9--5--5----|
E|E|---------------|E|---------------|-------------7-|


        PM PM    NH    NH PM PM
  E  E  S  S     E     E  S  S  E  E
E|-------------E|E|E|E|E|---------------|----------|
B|--------------<>12--<>12--------------|
G|-------------E|E|E|E|E|---------------|----------|
D|--9--9E|---------------|-----------9--9--|
A|--7--7E|---------------|-----------7--7--|
E|--------0--0--------------0--0--------|


  PM PM    NH    NH PM PM
  S  S     E     E  S  S   E   E   E   E
E|E|---------------|--E|E|E|E|E|---------------|----------|
B|--------<>12--<>12--------12--12--12--12--|
G|E|---------------|--E|E|E|E|E|---------------|----------|
D|E|---------------|-----------10--10--10--10--|
A|E|---------------|--E|E|E|E|E|---------------|----------|
E|--0--0--------------0--0E|---------------|---|


   E   E   E   E   E   E   E   E
E|---------E|E|E|E|E|---------------|----------|
B|---------E|E|E|E|E|---------------|----------|
G|--11--11--11--11--11--11--11--11--|
D|---9---9---9---9---9---9---9---9--|
A|---7---7---7---7---7---7---7---7--|
E|---0---0---0---0---0---0---0---0--|


   E   E   E   E   E   E   E   E
E|---------E|E|E|E|E|---------------|----------|
B|---------E|E|E|E|E|---------------|----------|
G|--11--11--11--11--11--11--11--11--|
D|---9---9---9---9---9---9---9---9--|
A|---7---7---7---7---7---7---7---7--|
E|---0---0---0---0---0---0---0---0--|


  E  E  E  E  E  E  E  E
E|-E|E|E|E|E|---------------|----------|
B|--7--7--7--7--7--7--7--7--|
G|-E|E|E|E|E|---------------|----------|
D|--7--7--7--7--7--7--7--7--|
A|--7--7--7--7--7--7--7--7--|
E|--5--5--5--5--5--5--5--5--|


  E  E  E  E  E  E  E  E
E|-E|E|E|E|E|---------------|----------|
B|--7--7--7--7--7--7--7--7--|
G|-E|E|E|E|E|---------------|----------|
D|--7--7--7--7--7--7--7--7--|
A|--7--7--7--7--7--7--7--7--|
E|--5--5--5--5--5--5--5--5--|


   E   E   E   E   E   E   E   E
E|---------E|E|E|E|E|---------------|----------|
B|---------E|E|E|E|E|---------------|----------|
G|--11--11--11--11--11--11--11--11--|
D|--10--10--10--10--10--10--10--10--|
A|--10--10--10--10--10--10--10--10--|
E|---8---8---8---8---8---8---8---8--|


   E   E   E   E   E   E   E   E
E|---------E|E|E|E|E|---------------|----------|
B|---------E|E|E|E|E|---------------|----------|
G|--11--11--11--11--11--11--11--11--|
D|--10--10--10--10--10--10--10--10--|
A|--10--10--10--10--10--10--10--10--|
E|---8---8---8---8---8---8---8---8--|


  E  E  E  E  E  E  E  E
E|-E|E|E|E|E|---------------|----------|
B|--7--7--7--7--7--7--7--7--|
G|--7--7--7--7--7--7--7--7--|
D|--7--7--7--7--7--7--7--7--|
A|--5--5--5--5--5--5--5--5--|
E|-E|E|E|E|E|---------------|----------|


  E  E  E  E  E  E  E  E
E|-E|E|E|E|E|---------------|----------|
B|--7--7--7--7--7--7--7--7--|
G|--7--7--7--7--7--7--7--7--|
D|--7--7--7--7--7--7--7--7--|
A|--5--5--5--5--5--5--5--5--|
E|-E|E|E|E|E|---------------|----------|


   E   E   E   E  Q     Q
E|----E|E|E|E|E|---------------|----------|
B|----E|E|E|E|E|---------------|----------|
G|--12--12--12--12-------12----|
D|---9---9---9---9--------9----|
A|---7---7---7---7--7-----7----|
E|E|---------------|---0-----0----|


   E   Q     E   E   E   E   E
E|-------E|E|E|E|E|---------------|----------|
B|-------E|E|E|E|E|---------------|----------|
---L--12----12--12--12--12--12--|
---L---9-----9---9---9---9---9--|
---L---7-----7---7---7---7---7--|
---L---0-----0---0---0---0---0--|


  E  E  E  E  Q    Q
E|E|---------------|---------|
B|--7--7--7--7-------7----|
G|E|---------------|---------|
D|--7--7--7--7-------7----|
A|--7--7--7--7--7----7----|
E|--------------5----5----|


  E  Q    E  E  E  E  E
E|E|E|E|E|---------------|----------|
--L--7----7--7--7--7--7--|
E|E|E|E|E|---------------|----------|
--L--7----7--7--7--7--7--|
--L--7----7--7--7--7--7--|
--L--5----5--5--5--5--5--|


   E   E   E   E   Q     Q
-----E|E|E|E|E|---------------|----------|
-----E|E|E|E|E|---------------|----------|
--12--12--12--12--------12----|
--10--10--10--10--------10----|
--10--10--10--10--10----10----|
E|---------------|----8-----8----|


   E   Q     E   E   E   E   E
E|-------E|E|E|E|E|---------------|----------|
B|-------E|E|E|E|E|---------------|----------|
---L--12----12--12--12--12--12--|
---L--10----10--10--10--10--10--|
---L--10----10--10--10--10--10--|
---L---8-----8---8---8---8---8--|


  E  E  E  E  Q    Q
E|E|---------------|---------|
B|--7--7--7--7-------7----|
G|--7--7--7--7-------7----|
D|--7--7--7--7--7----7----|
A|--------------5----5----|
E|E|---------------|---------|


  E  Q    E  E  E  E  E
E|E|E|E|E|---------------|----------|
--L--7----7--7--7--7--7--|
--L--7----7--7--7--7--7--|
--L--7----7--7--7--7--7--|
--L--5----5--5--5--5--5--|
E|E|E|E|E|---------------|----------|


   E   E   E   E  Q     Q
E|----E|E|E|E|E|---------------|----------|
B|----E|E|E|E|E|---------------|----------|
G|--12--12--12--12-------12----|
D|---9---9---9---9--------9----|
A|---7---7---7---7--7-----7----|
E|E|---------------|---0-----0----|


   E   Q     E   E   E   E   E
E|-------E|E|E|E|E|---------------|----------|
B|-------E|E|E|E|E|---------------|----------|
---L--12----12--12--12--12--12--|
---L---9-----9---9---9---9---9--|
---L---7-----7---7---7---7---7--|
---L---0-----0---0---0---0---0--|


   E   E   E   E  Q     Q
E|----E|E|E|E|E|---------------|----------|
B|----E|E|E|E|E|---------------|----------|
G|--12--12--12--12-------12----|
D|---9---9---9---9--------9----|
A|---7---7---7---7--7-----7----|
E|E|---------------|---0-----0----|


   E   Q     E   E   E   E   E
-------E|E|E|E|E|---------------|----------|-----|-----|
-------E|E|E|E|E|---------------|----------|-----|-----|
---L--12----12--12--12--12--12--|-----|-----|
---L---9-----9---9---9---9---9--|-----|-----|
---L---7-----7---7---7---7---7--|-----|-----|
---L---0-----0---0---0---0---0--|-----|-----|


   S  S S S S S  S  S S S S S  S  S S S
E|---------------|E|E|E|E|E|---------------|----------|
E|---------------|E|E|E|E|E|---------------|----------|
--11-11---------11-11---------11-11-----|
--------9-9-----------9-9-----------9-9-|
------------7-7-----------7-7-----------|
E|---------------|E|E|E|E|E|---------------|----------|


  S S  S  S S S S S  S  S S S S S S S
-------------E|E|E|E|E|---------------|----------|
-------------E|E|E|E|E|---------------|----------|
------11-11---------11-11-------------|
------------9-9-----------9-9-7-7-9-9-|
--7-7-----------7-7E|---------------|----|
-------------E|E|E|E|E|---------------|----------|


   S  S S S S S  S  S S S S S  S  S S S
E|---------------|E|E|E|E|E|---------------|----------|
E|---------------|E|E|E|E|E|---------------|----------|
--11-11---------11-11---------11-11-----|
--------9-9-----------9-9-----------9-9-|
------------7-7-----------7-7-----------|
E|---------------|E|E|E|E|E|---------------|----------|


  S S  S  S S S S S  S  S S S S S S S
-------------E|E|E|E|E|---------------|----------|
-------------E|E|E|E|E|---------------|----------|
------11-11---------11-11-------------|
------------9-9-----------9-9-7-7-9-9-|
--7-7-----------7-7E|---------------|----|
-------------E|E|E|E|E|---------------|----------|


   S  S  S  S S S  S  S  S  S S S  S  S  S  S
E|---------------|------E|E|E|E|E|---------------|----------|
E|---------------|------E|E|E|E|E|---------------|----------|
--11-11-----------11-11-----------11-11-------|
--------10-10-----------10-10-----------10-10-|
--------------7-7-------------7-7-------------|
E|---------------|------E|E|E|E|E|---------------|----------|


  S S  S  S  S  S S S  S  S  S  S S S  S  S
E|---------------|----E|E|E|E|E|---------------|----------|
E|---------------|----E|E|E|E|E|---------------|----------|
------11-11-----------11-11E|---------------|--|
------------10-10-----------10-10-9-9-10-10-|
--7-7-------------7-7E|---------------|--------|
E|---------------|----E|E|E|E|E|---------------|----------|


   S  S  S  S S S  S  S  S  S S S  S  S  S  S
E|---------------|------E|E|E|E|E|---------------|----------|
E|---------------|------E|E|E|E|E|---------------|----------|
--11-11-----------11-11-----------11-11-------|
--------10-10-----------10-10-----------10-10-|
--------------7-7-------------7-7-------------|
E|---------------|------E|E|E|E|E|---------------|----------|


  S S  S  S  S  S S S  S  S  S  S S S  S  S
E|---------------|----E|E|E|E|E|---------------|----------|
E|---------------|----E|E|E|E|E|---------------|----------|
------11-11-----------12-12E|---------------|--|
------------10-10-----------10-10-9-9-10-10-|
--7-7-------------7-7E|---------------|--------|
E|---------------|----E|E|E|E|E|---------------|----------|


   S  S S S S S  S  S S S S S  S  S S S
E|---------------|E|E|E|E|E|---------------|----------|
E|---------------|E|E|E|E|E|---------------|----------|
--11-11---------11-11---------11-11-----|
--------9-9-----------9-9-----------9-9-|
------------7-7-----------7-7-----------|
E|---------------|E|E|E|E|E|---------------|----------|


  S S  S  S S S S S  S  S S S S S S S
-------------E|E|E|E|E|---------------|----------|
-------------E|E|E|E|E|---------------|----------|
------11-11---------11-11-------------|
------------9-9-----------9-9-7-7-9-9-|
--7-7-----------7-7E|---------------|----|
-------------E|E|E|E|E|---------------|----------|


   S  S S S S S  S  S S S S S  S  S S S
E|---------------|E|E|E|E|E|---------------|----------|
E|---------------|E|E|E|E|E|---------------|----------|
--11-11---------11-11---------11-11-----|
--------9-9-----------9-9-----------9-9-|
------------7-7-----------7-7-----------|
E|---------------|E|E|E|E|E|---------------|----------|


  S S  S  S S S S S  S  S S S S S S S
-------------E|E|E|E|E|---------------|----------|
-------------E|E|E|E|E|---------------|----------|
------11-11---------11-11-------------|
------------9-9-----------9-9-7-7-9-9-|
--7-7-----------7-7E|---------------|----|
-------------E|E|E|E|E|---------------|----------|


   S  S  S  S S S  S  S  S  S S S  S  S  S  S
E|---------------|------E|E|E|E|E|---------------|----------|
E|---------------|------E|E|E|E|E|---------------|----------|
--11-11-----------11-11-----------11-11-------|
--------10-10-----------10-10-----------10-10-|
--------------7-7-------------7-7-------------|
E|---------------|------E|E|E|E|E|---------------|----------|


  S S  S  S  S  S S S  S  S  S  S S S  S  S
E|---------------|----E|E|E|E|E|---------------|----------|
E|---------------|----E|E|E|E|E|---------------|----------|
------11-11-----------11-11E|---------------|--|
------------10-10-----------10-10-9-9-10-10-|
--7-7-------------7-7E|---------------|--------|
E|---------------|----E|E|E|E|E|---------------|----------|


   S  S  S  S S S  S  S  S  S S S  S  S  S  S
E|---------------|------E|E|E|E|E|---------------|----------|
E|---------------|------E|E|E|E|E|---------------|----------|
--11-11-----------11-11-----------11-11-------|
--------10-10-----------10-10-----------10-10-|
--------------7-7-------------7-7-------------|
E|---------------|------E|E|E|E|E|---------------|----------|


  S S  S  S  S  S S S  S  S  S  S S S  S  S
E|---------------|----E|E|E|E|E|---------------|----------|
E|---------------|----E|E|E|E|E|---------------|----------|
------11-11-----------12-12E|---------------|--|
------------10-10-----------10-10-9-9-10-10-|
--7-7-------------7-7E|---------------|--------|
E|---------------|----E|E|E|E|E|---------------|----------|


          PM PM       PM PM
   E   E  S  S  E  E  S  S   E   E
-----------E|E|E|E|E|---------------|----------|
-----------E|E|E|E|E|---------------|----------|
--12--12E|---------------|-----12--12--|
---9---9E|---------------|------9---9--|
---7---7--------2--2---------7---7--|
----------0--0--0--0--0--0----------|


  PM PM       PM PM    NH   NH   NH   NH   NH
  S  S  E  E  S  S     S    S    S    S    S
E|---------------|-----E|E|E|E|E|---------------|----------|
E|---------------|-----<>12-<>12-<>12-<>12-<>12-|
E|---------------|-----E|E|E|E|E|---------------|----------|
E|---------------|-----E|E|E|E|E|---------------|----------|
--------2--2--------E|E|E|E|E|---------------|----------|
--0--0--0--0--0--0--E|E|E|E|E|---------------|----------|


          PM PM       PM PM
   E   E  S  S  E  E  S  S   E   E
-----------E|E|E|E|E|---------------|----------|
-----------E|E|E|E|E|---------------|----------|
--12--12E|---------------|-----12--12--|
--10--10E|---------------|-----10--10--|
---7---7--------2--2---------7---7--|
----------0--0--0--0--0--0----------|


  PM PM PM PM PM PM PM PM PM PM PM PM PM PM P
  S  S  S  S  S  S  S  S  S  S  S  S  S  S  S
E|---------------|------E|E|E|E|E|---------------|----------|
E|---------------|------E|E|E|E|E|---------------|----------|
E|---------------|------E|E|E|E|E|---------------|----------|
E|---------------|-----------5--5--------------9-|
--------9--9--5--5--9--9--------9--9--5--5----|
--0--0E|---------------|E|E|E|E|E|---------------|----------|


   S  S  S  E.   S  S  S  E.   S  S  S  S
E|---------------|--E|E|E|E|E|---------------|----------|
E|---------------|--E|E|E|E|E|---------------|----------|
--11-11-11-11---11-11-11-11---11-11-11-11-|
--10-10-10-10---10-10-10-10---10-10-10-10-|
--10-10-10-10---10-10-10-10---10-10-10-10-|
---8--8--8--8----8--8--8--8----8--8--8--8-|


                   PM PM PM PM PM PM PM PM
  E   S  S  S  E.  S  S  S  S  S  S  S  S
E|---------------|---E|E|E|E|E|---------------|----------|
E|---------------|---E|E|E|E|E|---------------|----------|
--L--11-11-11-11--E|E|E|E|E|---------------|----------|
--L--10-10-10-10--E|E|E|E|E|---------------|----------|
--L--10-10-10-10--E|E|E|E|E|---------------|----------|
--L---8--8--8--8---0--0--0--0--0--0--0--0--|


   S  S  S  E.   S  S  S  E.   S  S  S  S
E|---------------|--E|E|E|E|E|---------------|----------|
E|---------------|--E|E|E|E|E|---------------|----------|
--11-11-11-11---11-11-11-11---11-11-11-11-|
--10-10-10-10---10-10-10-10---10-10-10-10-|
--10-10-10-10---10-10-10-10---10-10-10-10-|
---8--8--8--8----8--8--8--8----8--8--8--8-|


  E   S  S  S  E.  S S S S  S  S S S
------------E|E|E|E|E|---------------|----------|
------------E|E|E|E|E|---------------|----------|
--L--11-11-11-11-----------11-11-----|
--L--10-10-10-10---9-9-----------9-9-|
--L--10-10-10-10-------7-7-----------|
--L---8--8--8--8E|---------------|------|


          PM PM       PM PM
   E   E  S  S  E  E  S  S   E   E
-----------E|E|E|E|E|---------------|----------|
-----------E|E|E|E|E|---------------|----------|
--12--12E|---------------|-----12--12--|
---9---9E|---------------|------9---9--|
---7---7--------2--2---------7---7--|
----------0--0--0--0--0--0----------|


  PM PM       PM PM    NH   NH   NH   NH   NH
  S  S  E  E  S  S     S    S    S    S    S
E|---------------|-----E|E|E|E|E|---------------|----------|
E|---------------|-----<>12-<>12-<>12-<>12-<>12-|
E|---------------|-----E|E|E|E|E|---------------|----------|
E|---------------|-----E|E|E|E|E|---------------|----------|
--------2--2--------E|E|E|E|E|---------------|----------|
--0--0--0--0--0--0--E|E|E|E|E|---------------|----------|


          PM PM       PM PM
   E   E  S  S  E  E  S  S   E   E
-----------E|E|E|E|E|---------------|----------|
-----------E|E|E|E|E|---------------|----------|
--12--12E|---------------|-----12--12--|
--10--10E|---------------|-----10--10--|
---7---7--------2--2---------7---7--|
----------0--0--0--0--0--0----------|


  PM PM PM PM PM PM PM PM PM PM PM PM PM PM P
  S  S  S  S  S  S  S  S  S  S  S  S  S  S  S
E|---------------|------E|E|E|E|E|---------------|----------|
E|---------------|------E|E|E|E|E|---------------|----------|
E|---------------|------E|E|E|E|E|---------------|----------|
E|---------------|-----------5--5--------------9-|
--------9--9--5--5--9--9--------9--9--5--5----|
--0--0E|---------------|E|E|E|E|E|---------------|----------|


   S  S  S  E.   S  S  S  E.   S  S  S  S
E|---------------|--E|E|E|E|E|---------------|----------|
E|---------------|--E|E|E|E|E|---------------|----------|
--11-11-11-11---11-11-11-11---11-11-11-11-|
--10-10-10-10---10-10-10-10---10-10-10-10-|
--10-10-10-10---10-10-10-10---10-10-10-10-|
---8--8--8--8----8--8--8--8----8--8--8--8-|


                   PM PM PM PM PM PM PM PM
  E   S  S  S  E.  S  S  S  S  S  S  S  S
E|---------------|---E|E|E|E|E|---------------|----------|
E|---------------|---E|E|E|E|E|---------------|----------|
--L--11-11-11-11--E|E|E|E|E|---------------|----------|
--L--10-10-10-10--E|E|E|E|E|---------------|----------|
--L--10-10-10-10--E|E|E|E|E|---------------|----------|
--L---8--8--8--8---0--0--0--0--0--0--0--0--|


   S  S  S  E.   S  S  S  E.   S  S  S  S
E|---------------|--E|E|E|E|E|---------------|----------|
E|---------------|--E|E|E|E|E|---------------|----------|
--11-11-11-11---11-11-11-11---11-11-11-11-|
--10-10-10-10---10-10-10-10---10-10-10-10-|
--10-10-10-10---10-10-10-10---10-10-10-10-|
---8--8--8--8----8--8--8--8----8--8--8--8-|


  E   S  S  S  E.  S S S S  S  S S S
------------E|E|E|E|E|---------------|----------|
------------E|E|E|E|E|---------------|----------|
--L--11-11-11-11-----------11-11-----|
--L--10-10-10-10---9-9-----------9-9-|
--L--10-10-10-10-------7-7-----------|
--L---8--8--8--8E|---------------|------|


  PM PM          PM PM
  E  E           E  E  H.
E|--------|-----|E|---------------|------|
B|--------|-----|E|---------------|------|
G|--------|-----|E|---------------|------|
D|--------|-----|E|---------------|------|
A|--0--0--|-----|--0--0E|---------------||
E|--0--0--|-----|--0--0E|---------------||


     PM PM       PM PM
  E  E  E  E  E  E  E  E
-E|E|E|E|E|---------------|----------|
-E|E|E|E|E|---------------|----------|
-E|E|E|E|E|---------------|----------|
-E|E|E|E|E|---------------|----------|
-----0--0--------0--0-----|
-----0--0--------0--0-----|


        PM PM PM PM PM PM PM
  E  E  E  E  E  E  S  S  E
----E|E|E|E|E|---------------|----------|
----E|E|E|E|E|---------------|----------|
----E|E|E|E|E|---------------|----------|
----E|E|E|E|E|---------------|----------|
--------0--0--0--0--0--0--0--|
--------0--0--0--0--0--0--0--|


  PM PM PM PM PM
  S  S  E  E  E  E.  E.  E
---E|E|E|E|E|---------------|----------|
---E|E|E|E|E|---------------|----------|
---E|E|E|E|E|---------------|----------|
E|---------------|--5---5---4--|
--3--3--3--0--2--3---3---0--|
--3--3--3--0--2--3---3------|


  PM PM
  E  E  H.
E|E|---------------|------|
B|E|---------------|------|
G|E|---------------|------|
D|E|---------------|------|
A|--0--0E|---------------||
E|--0--0E|---------------||


     PM PM       PM PM
  E  E  E  E  E  E  E  E
-E|E|E|E|E|---------------|----------|
-E|E|E|E|E|---------------|----------|
-E|E|E|E|E|---------------|----------|
-E|E|E|E|E|---------------|----------|
-----0--0--------0--0-----|
-----0--0--------0--0-----|


        PM PM PM PM PM PM PM
  E  E  E  E  E  E  S  S  E
----E|E|E|E|E|---------------|----------|
----E|E|E|E|E|---------------|----------|
----E|E|E|E|E|---------------|----------|
----E|E|E|E|E|---------------|----------|
--------0--0--0--0--0--0--0--|
--------0--0--0--0--0--0--0--|


  PM PM PM PM PM
  S  S  E  E  E  E.  E.  E
---E|E|E|E|E|---------------|----------|
---E|E|E|E|E|---------------|----------|
---E|E|E|E|E|---------------|----------|
E|---------------|--5---5---4--|
--3--3--3--0--2--3---3---0--|
--3--3--3--0--2--3---3------|


  PM PM
  E  E  H.
E|E|---------------|------|
B|E|---------------|------|
G|E|---------------|------|
D|E|---------------|------|
A|--0--0E|---------------||
E|--0--0E|---------------||


     PM PM       PM PM
  E  E  E  E  E  E  E  E
-E|E|E|E|E|---------------|----------|
-E|E|E|E|E|---------------|----------|
-E|E|E|E|E|---------------|----------|
-E|E|E|E|E|---------------|----------|
-----0--0--------0--0-----|
-----0--0--------0--0-----|


        PM PM PM PM PM PM PM
  E  E  E  E  E  E  S  S  E
----E|E|E|E|E|---------------|----------|
----E|E|E|E|E|---------------|----------|
----E|E|E|E|E|---------------|----------|
----E|E|E|E|E|---------------|----------|
--------0--0--0--0--0--0--0--|
--------0--0--0--0--0--0--0--|


  PM PM PM PM PM
  S  S  E  E  E  E.  E.  E
---E|E|E|E|E|---------------|----------|
---E|E|E|E|E|---------------|----------|
---E|E|E|E|E|---------------|----------|
E|---------------|--5---5---4--|
--3--3--3--0--2--3---3---0--|
--3--3--3--0--2--3---3------|


  PM PM
  E  E  H.
E|E|---------------|------|
B|E|---------------|------|
G|E|---------------|------|
D|E|---------------|------|
A|--0--0E|---------------||
E|--0--0E|---------------||


     PM PM       PM PM
  E  E  E  E  E  E  E  E
-E|E|E|E|E|---------------|----------|
-E|E|E|E|E|---------------|----------|
-E|E|E|E|E|---------------|----------|
-E|E|E|E|E|---------------|----------|
-----0--0--------0--0-----|
-----0--0--------0--0-----|


        PM PM PM PM PM PM PM
  E  E  E  E  E  E  S  S  E
----E|E|E|E|E|---------------|----------|
----E|E|E|E|E|---------------|----------|
----E|E|E|E|E|---------------|----------|
----E|E|E|E|E|---------------|----------|
--------0--0--0--0--0--0--0--|
--------0--0--0--0--0--0--0--|


  PM PM PM PM PM
  S  S  E  E  E  E.  E.  E
---E|E|E|E|E|---------------|----------|
---E|E|E|E|E|---------------|----------|
---E|E|E|E|E|---------------|----------|
E|---------------|--5---5---4--|
--3--3--3--0--2--3---3---0--|
--3--3--3--0--2--3---3------|


  E  E  E  E  E  E  E  E
-E|E|E|E|E|---------------|----------|
-E|E|E|E|E|---------------|----------|
--9--9--9--9--9--9--9--9--|
--9--9--9--9--9--9--9--9--|
-E|E|E|E|E|---------------|----------|
-E|E|E|E|E|---------------|----------|


  E  E  E  E  E  E  E  E
-E|E|E|E|E|---------------|----------|
-E|E|E|E|E|---------------|----------|
--9--9--9--9--9--9--9--9--|
--9--9--9--9--9--9--9--9--|
-E|E|E|E|E|---------------|----------|
-E|E|E|E|E|---------------|----------|


  E  E  E  E  E  E  E  E
-E|E|E|E|E|---------------|----------|
-E|E|E|E|E|---------------|----------|
--9--9--9--9--9--9--9--9--|
--7--7--7--7--7--7--7--7--|
-E|E|E|E|E|---------------|----------|
-E|E|E|E|E|---------------|----------|


  E  E  E  E  E  E  E  E
-E|E|E|E|E|---------------|----------|
-E|E|E|E|E|---------------|----------|
--9--9--9--9--9--9--9--9--|
--7--7--7--7--7--7--7--7--|
-E|E|E|E|E|---------------|----------|
-E|E|E|E|E|---------------|----------|


  E  E  E  E  E  E  E  E
-E|E|E|E|E|---------------|----------|
-E|E|E|E|E|---------------|----------|
--9--9--9--9--9--9--9--9--|
--9--9--9--9--9--9--9--9--|
-E|E|E|E|E|---------------|----------|
-E|E|E|E|E|---------------|----------|


  E  E  E  E  E  E  E  E
-E|E|E|E|E|---------------|----------|
-E|E|E|E|E|---------------|----------|
--9--9--9--9--9--9--9--9--|
--9--9--9--9--9--9--9--9--|
-E|E|E|E|E|---------------|----------|
-E|E|E|E|E|---------------|----------|


   E   E   E   E   E   E   E   E
---------E|E|E|E|E|---------------|----------|
---------E|E|E|E|E|---------------|----------|
--11--11--11--11--11--11--11--11--|
---9---9---9---9---9---9---9---9--|
---------E|E|E|E|E|---------------|----------|
---------E|E|E|E|E|---------------|----------|


   E   E   E   E   E   E   E   E
---------E|E|E|E|E|---------------|----------|
---------E|E|E|E|E|---------------|----------|
--12--12--12--12--12--12--12--12--|
---9---9---9---9---9---9---9---9--|
---------E|E|E|E|E|---------------|----------|
---------E|E|E|E|E|---------------|----------|


  E  E  E  E  E  E  E  E
-E|E|E|E|E|---------------|----------|
-E|E|E|E|E|---------------|----------|
--9--9--9--9--9--9--9--9--|
--9--9--9--9--9--9--9--9--|
-E|E|E|E|E|---------------|----------|
-E|E|E|E|E|---------------|----------|


  E  E  E  E  E  E  E  E
-E|E|E|E|E|---------------|----------|
-E|E|E|E|E|---------------|----------|
--9--9--9--9--9--9--9--9--|
--9--9--9--9--9--9--9--9--|
-E|E|E|E|E|---------------|----------|
-E|E|E|E|E|---------------|----------|


  E  E  E  E  E  E  E  E
-E|E|E|E|E|---------------|----------|
-E|E|E|E|E|---------------|----------|
--9--9--9--9--9--9--9--9--|
--7--7--7--7--7--7--7--7--|
-E|E|E|E|E|---------------|----------|
-E|E|E|E|E|---------------|----------|


  E  E  E  E  E  E  E  E
-E|E|E|E|E|---------------|----------|
-E|E|E|E|E|---------------|----------|
--9--9--9--9--9--9--9--9--|
--7--7--7--7--7--7--7--7--|
-E|E|E|E|E|---------------|----------|
-E|E|E|E|E|---------------|----------|


  E  E  E  E  E  E  E  E
-E|E|E|E|E|---------------|----------|
-E|E|E|E|E|---------------|----------|
--9--9--9--9--9--9--9--9--|
--9--9--9--9--9--9--9--9--|
-E|E|E|E|E|---------------|----------|
-E|E|E|E|E|---------------|----------|


  E  E  E  E  E  E  E  E
-E|E|E|E|E|---------------|----------|
-E|E|E|E|E|---------------|----------|
--9--9--9--9--9--9--9--9--|
--9--9--9--9--9--9--9--9--|
-E|E|E|E|E|---------------|----------|
-E|E|E|E|E|---------------|----------|


   E   E   E   E   E   E   E   E
---------E|E|E|E|E|---------------|----------|
---------E|E|E|E|E|---------------|----------|
--11--11--11--11--11--11--11--11--|
---9---9---9---9---9---9---9---9--|
---------E|E|E|E|E|---------------|----------|
---------E|E|E|E|E|---------------|----------|


                                     PM PM
   E   E   E   E   E   E   E   E     E  E
---------E|E|E|E|E|---------------|----------|--------||
---------E|E|E|E|E|---------------|----------|--------||
--12--12--12--12--12--12--12--12--|--------||
---9---9---9---9---9---9---9---9--|--------||
---------E|E|E|E|E|---------------|----------|--0--0--||
---------E|E|E|E|E|---------------|----------|--0--0--||




Duration Legend
E|---------------|
W - whole
H - half
Q - quarter
E - 8th
S - 16th
T - 32nd
X - 64th
. - note dotted
|-n-|  - n-tuplets


Tablature Legend
E|---------------|-
L - tied note
x - dead note
g - grace note
(n) - ghost note
> - accentuded note
NH - natural harmonic
AH - artificial harmonic
TH - tapped harmonic
SH - semi harmonic
PH - pitch harmonic
h - hammer on
p - pull off
b - bend
br - bendRelease
pb - preBend
pbr - preBendRelease
brb - bendReleaseBend
\n/ - tremolo bar dip
\n - tremolo bar dive
-/n - tremolo bar Release up
/n\ - tremolo bar inverted dip
/n - tremolo bar return
-\n - tremolo bar Release down
S - shift slide
s - legato slide
/ -  slide into from below or out of upwards
\ -  slide into from above or out of downwards
~ - vibrato
W - wide vibrato
tr - trill
TP - tremolo picking
T - tapping
S - slap
P - pop
< - fade in
^ - brush up
v - brush down
Outros vídeos desta música
    17 exibições
      • ½ Tom
      • A
      • Bb
      • B
      • C
      • Db
      • D
      • Eb
      • E
      • F
      • F#
      • G
      • Ab
    • Adicionar à lista

    Afinação da cifra

    Afinador online

      0 comentários

      Ver todos os comentários

      Entre para o Cifra Club PRO

      Tenha acesso a benefícios exclusivos no App e no Site

      • Chega de anúncios

      • Badges exclusivas

      • Mais recursos no app do Afinador

      • Atendimento Prioritário

      • Aumente seu limite de lista

      • Ajude a produzir mais conteúdo

      Cifra Club Pro

      Aproveite o Cifra Club com benefícios exclusivos e sem anúncios
      Cifra Club Pro
      Aproveite o Cifra Club com benefícios exclusivos e sem anúncios
      Ops (: Contenido disponible sólo en portugués.
      OK