Cifra Club

Dead Butterflies

Architects

Cifra: Principal (violão e guitarra)
Selo Cifra Club: esta cifra foi revisada para atender aos critérios oficiais da nossa Equipe de Qualidade.
tom: F#
E|----------------------------------------------------------|
B|----------------------------------------------------------|
G|----------------------------------------------------------|
D|--4----------------2---------------9--------------0-------|
A|--4----------------2---------------9--------------0-------|
E|--4----------------2---------------9--------------0-------|

E|-------------------------------------------------------------------|
B|-------------------------------------------------------------------|
G|-------------------------------------------------------------------|
D|--4-4-4-4-4-4-4-4-4-4-4-4-4-4-4-4-2-2-2-2-2-2-2-2-2-2-2-2-2-2-2-2--|
A|--4-4-4-4-4-4-4-4-4-4-4-4-4-4-4-4-2-2-2-2-2-2-2-2-2-2-2-2-2-2-2-2--|
E|--4-4-4-4-4-4-4-4-4-4-4-4-4-4-4-4-2-2-2-2-2-2-2-2-2-2-2-2-2-2-2-2--|

E|-------------------------------------------------------------------|
B|-------------------------------------------------------------------|
G|-------------------------------------------------------------------|
D|--9-9-9-9-9-9-9-9-9-9-9-9-9-9-9-9-7-7-7-7-7-7-6-6-6-6-6-6-6-6-6-6--|
A|--9-9-9-9-9-9-9-9-9-9-9-9-9-9-9-9-5-5-5-5-5-5-4-4-4-4-4-4-4-4-4-4--|
E|--9-9-9-9-9-9-9-9-9-9-9-9-9-9-9-9-0-0-0-0-0-0-------------6-6-6-6--|

[Verse]

(No Guitar)

[Chorus]

E|-------------------------------------------------------------------|
B|-------------------------------------------------------------------|
G|-------------------------------------------------------------------|
D|--2-4-4-4-4-4-2-4-4-4-4-4-2-4-4-4-2-2-2-2-2-2-2-2-2-2-2-2-2-2-2-2--|
A|--2-4-4-4-4-4-2-4-4-4-4-4-2-4-4-4-2-2-2-2-2-2-2-2-2-2-2-2-2-2-2-2--|
E|--2-4-4-4-4-4-2-4-4-4-4-4-2-4-4-4-2-2-2-2-2-2-2-2-2-2-2-2-2-2-2-2--|

E|-------------------------------------------------------------------|
B|-------------------------------------------------------------------|
G|-------------------------------------------------------------------|
D|--7-9-9-9-9-9-7-9-9-9-9-9-7-7-7-7-7-7-7-7-7-7-6-6-6-6-6-6-6-6-6-6--|
A|--7-9-9-9-9-9-7-9-9-9-9-9-7-7-7-7-5-5-5-5-5-5-4-4-4-4-4-4-4-4-4-4--|
E|--7-9-9-9-9-9-7-9-9-9-9-9-7-7-7-7-0-0-0-0-0-0-------------6-6-6-6--|

[Verse]

(No Guitar)

[Pre Chorus]

E|------------------------------------------------------------------------------------------------|
B|------------------------------------------------------------------------------------------------|
G|--16-16-16-16-16-16-16-16-16-16-16-16-16-16-16-16-14-13-13-13-13-13-13--13b14b13------16-16-16--|
D|---------------------------------------------------------------------------------14-------------|
A|------------------------------------------------------------------------------------------------|
E|------------------------------------------------------------------------------------------------|

E|------------------------------------------------------------------14-14--------|
B|------------17-----------------------------------------------------------------|
G|-18-18-18------18p16-16-16-16-16-16-16-16-16-16-13-13-13-13b14b13--------------|
D|-------------------------------------------------------------------------------|
A|-------------------------------------------------------------------------------|
E|-------------------------------------------------------------------------------|

[Chorus]

E|-------------------------------------------------------------------|
B|-------------------------------------------------------------------|
G|-------------------------------------------------------------------|
D|--2-4-4-4-4-4-2-4-4-4-4-4-2-4-4-4-2-2-2-2-2-2-2-2-2-2-2-2-2-2-2-2--|
A|--2-4-4-4-4-4-2-4-4-4-4-4-2-4-4-4-2-2-2-2-2-2-2-2-2-2-2-2-2-2-2-2--|
E|--2-4-4-4-4-4-2-4-4-4-4-4-2-4-4-4-2-2-2-2-2-2-2-2-2-2-2-2-2-2-2-2--|
                                                                         x2
E|-------------------------------------------------------------------|
B|-------------------------------------------------------------------|
G|-------------------------------------------------------------------|
D|--7-9-9-9-9-9-7-9-9-9-9-9-7-7-7-7-7-7-7-7-7-4-6-6-6-6-6-6-6-6-6-6--|
A|--7-9-9-9-9-9-7-9-9-9-9-9-7-7-7-7-5-5-5-5-5-2-4-4-4-4-4-4-4-4-4-4--|
E|--7-9-9-9-9-9-7-9-9-9-9-9-7-7-7-7-0-0-0-0-0---------------6-6-6-6--|

[Break]

(Dead Butterflies)

[Bridge]

Lead Guitar (played first time through)

E|------------------------------------------------------------------------------------------------|
B|------------------------------------------------------------------------------------------------|
G|--16-16-16-16-16-16-16-16-16-16-16-16-16-16-16-16-14-13-13-13-13-13-13--13b14b13------16-16-16--|
D|---------------------------------------------------------------------------------14-------------|
A|------------------------------------------------------------------------------------------------|
E|------------------------------------------------------------------------------------------------|

E|------------------------------------------------------------------14-14-14-14-14-14-14-14-14-14--|
B|------------17-----------------------------------------------------------------------------------|
G|-18-18-18------18p16-16-16-16-16-16-16-16-16-16-13-13-13-13b14b13--------------------------------|
D|-------------------------------------------------------------------------------------------------|
A|-------------------------------------------------------------------------------------------------|
E|-------------------------------------------------------------------------------------------------|

Riff

E|-------------------------------------------------------------------|
B|-------------------------------------------------------------------|
G|-------------------------------------------------------------------|
D|--------4-4---------6-6---------7----------------------------------|
A|------------5-----------5-------------------5-0-0-0-0-0-0-0-0-0-0--|
E|--4-4-4-------4-4-4-------4-4-4---2-2-2-2-2---0-0-0-0-0-0-0-0-0-0--|
                                                                         x2
E|-------------------------------------------------------------------|
B|-------------------------------------------------------------------|
G|-------------------------------------------------------------------|
D|--------4-4---------6-6---------7----------------------------------|
A|------------5-----------5---------0-0-0-0-0-0-2-2-2-2-2-2-2-2-2-2--|
E|--4-4-4-------4-4-4-------4-4-4---0-0-0-0-0-0-2-2-2-2-2-2-2-2-2-2--|

[Chorus]

(Sam sings then come in)

E|-------------------------------------------------------------------|
B|-------------------------------------------------------------------|
G|-------------------------------------------------------------------|
D|--2-4-4-4-4-4-2-4-4-4-4-4-2-4-4-4-2-2-2-2-2-2-2-2-2-2-2-2-2-2-2-2--|
A|--2-4-4-4-4-4-2-4-4-4-4-4-2-4-4-4-2-2-2-2-2-2-2-2-2-2-2-2-2-2-2-2--|
E|--2-4-4-4-4-4-2-4-4-4-4-4-2-4-4-4-2-2-2-2-2-2-2-2-2-2-2-2-2-2-2-2--|
                                                                         x2
E|-------------------------------------------------------------------|
B|-------------------------------------------------------------------|
G|-------------------------------------------------------------------|
D|--7-9-9-9-9-9-7-9-9-9-9-9-7-7-7-7-7-7-7-7-7-4-6-6-6-6-6-6-6-6-6-6--|
A|--7-9-9-9-9-9-7-9-9-9-9-9-7-7-7-7-5-5-5-5-5-2-4-4-4-4-4-4-4-4-4-4--|
E|--7-9-9-9-9-9-7-9-9-9-9-9-7-7-7-7-0-0-0-0-0---------------6-6-6-6--|

[End]

E|-------------------------------------------------------------------|
B|-------------------------------------------------------------------|
G|-------------------------------------------------------------------|
D|--------4-4---------6-6---------7-------4-4---------6-6------------|
A|------------5-----------5-------------------5-----------5-4-4-4-4--|
E|--4-4-4-------4-4-4-------4-4-4---4-4-4-------4-4-4-------4-4-4-4--|
Outros vídeos desta música
    103 exibições
      • ½ Tom
      • A
      • Bb
      • B
      • C
      • Db
      • D
      • Eb
      • E
      • F
      • F#
      • G
      • Ab
    • Adicionar à lista

    Afinação da cifra

    Afinador online

      0 comentários

      Ver todos os comentários

      Entre para o Cifra Club PRO

      Tenha acesso a benefícios exclusivos no App e no Site

      • Chega de anúncios

      • Badges exclusivas

      • Mais recursos no app do Afinador

      • Atendimento Prioritário

      • Aumente seu limite de lista

      • Ajude a produzir mais conteúdo

      Cifra Club Pro

      Aproveite o Cifra Club com benefícios exclusivos e sem anúncios
      Cifra Club Pro
      Aproveite o Cifra Club com benefícios exclusivos e sem anúncios
      Ops (: Contenido disponible sólo en portugués.
      OK