Cifra Club

505

Arctic Monkeys

Cifra: Principal (violão e guitarra)
Tom: C
           Dm
I'm going back to 505
        Em
If it's a 7 hours flight
   Dm
Or a 45 minute drive
    Em                             Dm
In my imagination you're waiting lying on your side
           Em
With your hands between your thighs

Dm  Em

  Dm
Stop and wait a sec
          Em
When you look at me like that
             Dm
My darling what did you expect?
    Em
I probably still adore you
           Dm
With your hands around my neck
      Em
Or I did last time I checked

Dm  Em

     Dm        Dsus4     Dm
I'm not shy of a spark
      Em              Esus4     Em
The knife twists at the thought
               Dm
That I should fall
           Dsus4   Dm
Short of the mark
  Em    Esus4      Em
Frightened by the bite
            Dm       Dsus4   Dm
No it's no harsher than the bark
   Em    Esus4      Em
A middle of adventure
         Dm          Dsus4      Dm   Em
Such a perfect place to start

[Riff 1]

E|-12-10-8-7-5-----------------|
B|-----------6-----------------|
G|-----------7-----------------|
D|-----------------------------|
A|-----------------------------|
E|-----------------------------|

           Dm
I'm going back to 505
        Em
If it's a 7 hour flight
   Dm
Or a 45 minute drive
    Em                             Dm       Dsus4   Dm
In my imagination you're waiting lying on your side
           Em            Esus4  Em
With your hands between your  thighs

E|---12-10-8-7---------------------------------------------------|
B|---------------------------------------------------------------|
G|---------------------------------------------------------------|
D|---------------------------------------------------------------|
A|---------------------------------------------------------------|
E|---------------------------------------------------------------|

E|---------------------------------------------------------------|
B|---------------------------------------------------------------|
G|---------------------------------------------------------------|
D|--14--12--10--9--7--9--10--10101010--9-9999/14--14141414-------|
A|---------------------------------------------------------------|

E|----------------------------------------------------------10---|
B|----------------------------------------------------------10---|
G|----------------------------------------------------------12---|
D|--14--12--10--9--7--9--10--10101010--9-9999/14--14141414--12---|
A|---------------------------------------------------------------|
E|---------------------------------------------------------------|

               Dm          Dsus4    Dm
But I crumble completely when you cry
    Em           Esus4    Em             Dm
It seems like once again you've had to greet me with goobye
    Em                      Dm
I'm always just about to go and spoil the surprise
         Em                         Dm   Em
Take my hands off of your eyes too soon

           Dm
I'm going back to 505
        Em
If it's a 7 hour flight
   Dm
Or a 45 minute drive
    Em                            Dm
In my imagination you're waiting lying on your side
           Em                               Dm     Em
With your hands between your thighs and a smile

E|-------------------------------------------------------------|
B|----17-15-13-12-10-12-13-13131313-12-12121212/17-17171717----|
G|-------------------------------------------------------------| 
D|-------------------------------------------------------------|
A|-------------------------------------------------------------|
E|-------------------------------------------------------------|

E|-------------------------------------------------------------|
B|-------------------------------------------------------------|
G|-------------------------------------------------------------|
D|--14--12--10--9--7--9--10--10101010--9-9999/14--14141414-----|
A|-------------------------------------------------------------|
E|-------------------------------------------------------------|

E|-----------------------------------------------10------------|
B|-----------------------------------------------10------------|
G|-----------------------------------------------12------------|
D|--14--12--10--9--7--9--10--10101010--9-9999/14-12------------|
A|-------------------------------------------------------------|
E|-------------------------------------------------------------|
exibições 200.555
Acordes para:
    Composição: Alex Turner / Arctic Monkeys Colaboração e revisão:

    0 comentários

    mostrar mais comentários

    Conseguiu tocar?

    101 tocaram 6 ainda não

    Grave um vídeo tocando 505 e mande pra gente!

    00:00 / 00:00
    outros vídeos desta música
    repetir qualidade Automático
    Outros vídeos desta música
    00:00 / 00:00
    Automático
    OK