Cifra Club

A Certain Romance

Arctic Monkeys

Cifra: Principal (violão e guitarra)
Tom: B
[Intro]

E|----------------------------------------|
B|----------------------------------------|
G|---7--9---------------------------------|   
D|-9--------------------------------------|
A|----------------------------------------|
E|----------------------------------------|

E|----------------------------------------|
B|----------------------------------------|
G|----------------------------------------| 
D|--9-9-9---------------------------------|
A|--9-9-9---------------------------------|
E|--7-7-7---------------------------------|

[Parte 1]

E|--------------------14-14-14---------------16-16-16---------------18-18-18-18-18-15-12--|
B|--16-16---16-16-16-----------16---16-16-16----------16---16-16-16-----------------------|
G|----------------------------------------------------------------------------------------|
D|----------------------------------------------------------------------------------------|
A|----------------------------------------------------------------------------------------|
E|----------------------------------------------------------------------------------------|

E|--7--7-7-7-9-7---9-7---7--7-7-7---------------------------------------------------------|
B|---------------9-----9----------8-8-8-8-------------------------------------------------|
G|----------------------------------------------------------------------------------------|
D|----------------------------------------------------------------------------------------|
A|----------------------------------------------------------------------------------------|
E|----------------------------------------------------------------------------------------|

[Verso]

E|---11------------------------------------------------------|
B|---12------------------------------------------------------|
G|---11------------------------------------------------------|   
D|-----------------------------------------------------------|
A|-----------------------------------------------------------|
E|-----------------------------------------------------------|

E|---7-------------------------------------------------------|
B|---9-------------------------------------------------------|
G|---9-------------------------------------------------------| 
D|-----------------------------------------------------------|
A|-----------------------------------------------------------|
E|-----------------------------------------------------------|

        "You Know..."
E|-------------------------------------------------------------|
B|--9--9-7------9-7-----9-7-----9-7----------------------------|
G|---------8--6-----8-------8-------8-------6-8----9-5-6-------|
D|--------------------9-------9----------9-------6--------4----|
A|-------------------------------------------------------------|
E|-------------------------------------------------------------|

[Solo]  Ab  Gb  E

E|---7-----7-7-7-7-7------------7------|
B|---9---------------9-9--------8------|
G|---9-------------------9------9------|
D|-------------------------------------|
A|-------------------------------------|
E|-------------------------------------|

E|---11--------------------------------|
B|---12--------------------------------|
G|---11--------------------------------|
D|-------------------------------------|
A|-------------------------------------|
E|-------------------------------------|

E|---7--7------------------------------|
B|---9--8------------------------------|
G|---9--9------------------------------|   
D|-------------------------------------|
A|-------------------------------------|
E|-------------------------------------|

B  Ab  G

E|----------------------------------------------------|
B|----------------------------------------------------|
G|---------------------------------8-----8--6--4------|   
D|--9-8-9--9/11-9-8-9---8-9-9/11-9---6-----------6--5-|
A|----------------------------------------------------|
E|----------------------------------------------------|

E|----------------------------------------------------|
B|--9-9-7-7--------9-9-9-7-7--------------------------|
G|----------8-8-8-------------8-8-8-8-----------------|  
D|----------------------------------------------------|
A|----------------------------------------------------|
E|----------------------------------------------------|

E|----------------------------------------------------|
B|--9-9-7-7-------------7-7---------------------------|
G|----------8-8-6-6-8-8------8-8-6-6-4----------------|
D|----------------------------------------------------|
A|----------------------------------------------------|
E|----------------------------------------------------|
exibições 164.955
Acordes para:
    Composição: Arctic Monkeys Colaboração e revisão:

    0 comentários

    mostrar mais comentários

    Conseguiu tocar?

    30 tocaram 1 ainda não

    Grave um vídeo tocando A Certain Romance e mande pra gente!

    00:00 / 00:00
    outros vídeos desta música
    repetir qualidade Automático
    Outros vídeos desta música
    00:00 / 00:00
    Automático
    OK