Cifra Club

Aprenda

Balaclava

Arctic Monkeys

Cifra: Principal (violão e guitarra)
Já pensou em usar uma coleção de roupas do Cifra Club? Responda as perguntas abaixo e nos ajude nessa missão! →
tom: G
Postarei somente a intro e o final da musica no Baixo, o resto da musica postarei a transcrição nas guitarras

comeca com a intro no baixo:

G|------------------------|
D|------------------------|
A|---5-7-9-----4----5-----|
E|-7---------5----3-------|

guitarra 1 aos 0:14

e|------------------------|
B|------------------------|
G|------------------------|
D|------------------------|
A|----5-7-9----4---5------|
E|--7--------5---3--------|

guitarra 2 aos 0:14

e|---------------------------|
B|---------------------------|
G|----------11--------12--14-|
D|----12-14--------11--------|
A|-14-----------12-----------|
E|---------------------------|

começa aos 0:27 o riff principal dessa musik, feito com qualquer guitarra

e|-----------------------------------|--------------------------------|\
B|-----------------------------------|--------------------------------| \
G|-----------------------------------|--------------------------------|  \   2x
D|-----------------------------------|--------------------------------|  /
A|--------9--------------------------|--------9-----------------------| /
E|--7-7-7---10-7--5-7-5-7-5--2-2-3-5-|--7-7-7---10-7--3-5-3-5-3-2^^---|/

aos 0:41 tem um "break" onde soh fica a voz do Alex

e esse riff começa aos 0:43

e|------------------------|\
B|------------------------| \
G|------------------------|  \ guitarra 1
D|----------------5--7----|  /
A|----5-7-9----4----------| /
E|--7--------5------------|/

e|---------------------------|\
B|---------------------------| \
G|----------11--------12--14-|  \ guitarra 2
D|----12-14--------11--------|  /
A|-14-----------12-----------| /
E|---------------------------|/

aos 0:54 tem um rapido "break", onde as guitarras param, 

e volta aos 0:55, com um riff de "bridge"

e|------------------------------------------------------------------|\
B|------------------------------------------------------------------| \
G|------------------------------------------------------------------|  \ guitarra 1
D|------------------------------------------------------------------|  /
A|------------------------------------------------------------------| /
E|-7777777777777777-5555555555555555-33333333-22222222-777777777777-|/

e|---------------------------------------------------------------------------|\
B|---------------------------------------------------------------------------| \
G|---------------------------------------------------------------------------|  \ guitarra 2
D|---------------------------------------------------------------------------|  /
A|-------------------------------------------------------9---9---9--10-10-10-| /
E|---------------------------------------------------------------------------|/

O riff acima está transcrito de forma que: quando a guitarra 2 começa, a guitarra 1 ainda toca sua parte do riff

aos 1:08 começa o riff da "bridge" completo nas 2 guitarras

e|----------------------------------------------------------------|\
B|----------------------------------------------------------------| \
G|----------------------------------------------------------------|  \ guitarra 1
D|----------------------------------------------------------------|  /
A|----------------------------------------------------------------| /
E|-7777777777777777------5555555555555---------33333333-22222222--|/

e|------------------------------------------------------------------|\
B|------------------------------------------------------------------| \
G|------------------------------------------------------------------|  \ guitarra 2
D|--11--11--11--12-12-12-11--11--11--12-12-12-11--11--11--12-12-12--|  /
A|---9---9---9--10-10-10--9---9---9--10-10-10--9---9---9--10-10-10--| /
E|------------------------------------------------------------------|/

e ao tempo de 1:19 volta o riff principal da musik

e|-----------------------------------|--------------------------------|\
B|-----------------------------------|--------------------------------| \
G|-----------------------------------|--------------------------------|  \   2x
D|-----------------------------------|--------------------------------|  /
A|--------9--------------------------|--------9-----------------------| /
E|--7-7-7---10-7--5-7-5-7-5--2-2-3-5-|--7-7-7---10-7--3-5-3-5-3-2^^---|/

ao tempo de 1:33 começa o riff do verso da musica

e|------------------------|\
B|------------------------| \
G|------------------------|  \ guitarra 1
D|----------------5--7----|  /
A|----5-7-9----4----------| /
E|--7--------5------------|/

e|---------------------------|\
B|---------------------------| \
G|----------11--------12--14-|  \ guitarra 2
D|----12-14--------11--------|  /
A|-14-----------12-----------| /
E|---------------------------|/

ate o tempo de 2:12

e então, ao tempo de 2:13 começa o final, somente feito no baixo:

G|-------------------|\
D|-------------------| \ 5x
A|----5-----4--4--4--| /
E|--7----0---5--3----|/

um brake, e depois mais 4 vezes o riff acima

pronto!
espero que tenham gostado da transcrição
Composição de Alex Turner / Arctic Monkeys
Colaboração e revisão:
  • washington moreira
  • vinicius tavares
35.606 exibições
    • ½ Tom
    • A
    • Bb
    • B
    • C
    • Db
    • D
    • Eb
    • E
    • F
    • F#
    • G
    • Ab
  • Adicionar à lista

    0 comentários

    Ver todos os comentários

    Conseguiu tocar?

    5 Tocaram 0 Ainda não

    Grave um vídeo tocando Balaclava e nos envie!

    00:00 / 00:00
    Outros vídeos desta música
    Repetir Qualidade Automático
    Outros vídeos desta música
    00:00 / 00:00
    Automático

    Cifra Club Pro

    Aproveite o Cifra Club com benefícios exclusivos e sem anúncios
    Cifra Club Pro
    Aproveite o Cifra Club com benefícios exclusivos e sem anúncios
    OK