Cifra Club

Aprenda

Brianstorm

Arctic Monkeys

Cifra: Principal (violão e guitarra)
Já pensou em usar uma coleção de roupas do Cifra Club? Responda as perguntas abaixo e nos ajude nessa missão! →
tom: F
(4 compassos iniciais sem tocar)

Intro:

(Parte 1)

E|x-x-x-x--x-x-x-x--x-x-x-x--x-x-x-x-----------------
B|x-x-x-x--x-x-x-x--x-x-x-x--x-x-x-x-----------------
G|x-x-x-x--x-x-x-x--x-x-x-x--x-x-x-x-----------------  (4x)
D|x-x-x-x--x-x-x-x--x-x-x-x--x-x-x-x-----------------
A|---------------------------------------------------
E|---------------------------------------------------

(Parte 2)
E|---------------------------------------------------
B|---------------------------------------------------
G|---------------------------------------------------  (8x)
D|---------------------------------------------------
A|8-8-8-8-8-8-----8-8-8-8-8-8-8-8--------------------
E|------------9-9------------------------------------


Riff 1:

E|---------------------------------------------------
B|---------------------------------------------------
G|---------------------------------------------------
D|---------------------------------------------------
A|8-8-8-8-8-8---------------------4-4-4-4-6-6-6-6----
E|------------9-9-8-8-8-8-8-8-4-4--------------------

E|---------------------------------------------------
B|---------------------------------------------------
G|---------------------------------------------------
D|---------------------------------------------------
A|7-7-7-7/-10-10-10-10-------------------------------
E|---------------------------------------------------


Variação do Riff 1:

E|---------------------------------------------------
B|---------------------------------------------------
G|---------------------------------------------------  (4x)
D|---------------------------------------------------
A|8-----------------4--4--6--7--x--10----------------
E|---x--9--8--x--------------------------------------

(Contrabaixo)

Brian
Top marks for not tryin'

Variação do Riff 1 - Oitavas:

E|---------------------------------------------------
B|---------------------------------------------------
G|10-------------------6--6--8--9-----12-------------  (4x)
D|-------11--10--------------------------------------
A|8--------------------4--4--6--7--x--10-------------
E|----x--9---8---x-----------------------------------

So kind of you to bless us with your effortlessness
We're grateful and so strangely comforted

Riff 2 (acompanha o riff em oitavas):

E|---------------------------------------------------
B|---------------------------------------------------
G|10---10---10---10---10---10------------------------
D|---------------------------------------------------
A|8----8----8----8----8----8-------------------------
E|---------------------------------------------------

And I wonder
Are you puttin' us under?
'Cos we can't take our eyes
Off the t-shirt and ties combination
Well, see you later, innovator!

(Contrabaixo)

(Introdução - Parte 1)

Some want to kiss, some want to kick you

(Riff 1)

There's not a net you couldn't slip through
Or at least that's the impression I get
'Cos you're smooth and you're wet
And she's not aware yet, but she's yours

Riff 3 (acompanha o Riff 1):

E|---------------------------------------------------
B|6/18--18--18--18--18--18--18--18--18--18--18\6-----
G|---------------------------------------------------  (4x)
D|3/15--15--15--15--15--15--15--15--15--15--15\3-----
A|---------------------------------------------------
E|---------------------------------------------------

She'll be sayin' "Use me"
Show me the jacuzzi
I imagine that it's there on a plate
You're whole rendezvous rate
Means that you'll never be frightened
To make 'em wait for a while

Riff 4:

E|---------------------------------------------------
B|---------------------------------------------------
G|---------------------------------------------------
D|---------------------------------------------------
A|3---------------3--3--------4----------------------
E|---x--4--1--x---------4--1-------------------------

E|---------------------------------------------------
B|---------------------------------------------------
G|5--5--5--5--5--5--5--5--5--5--5--5--5--5--5--5-----
D|---------------------------------------------------
A|3--3--3--3--3--3--3--3--3--3--3--3--3--3--3--3-----
E|---------------------------------------------------

E|---------------------------------------------------
B|---------------------------------------------------
G|9--9--9--9--9--9--9--9--9--9--9--9--9--9--9--9-----
D|---------------------------------------------------
A|7--7--7--7--7--7--7--7--7--7--7--7--7--7--7--7-----
E|---------------------------------------------------

I doubt it's your style
Not to get what you set
Out to acquire
The odds are on fire
You are the unforecasted storm

(Riff - Contrabaixo)

Riff 5:

E|---------------------------------------------------
B|---------------------------------------------------
G|10--10--10--10--10--10/11--------------------------  (2x)
D|---------------------------------------------------
A|8---8---8---8---8---8-/9---------------------------
E|---------------------------------------------------

(Riff - Contrabaixo)

E|---------------------------------------------------
B|---------------------------------------------------
G|10--10--10--10--10--10/11--------------------------  (9x)
D|---------------------------------------------------
A|8---8---8---8---8---8-/9---------------------------
E|---------------------------------------------------

E|---------------------------------------------------
B|---------------------------------------------------
G|10--10--10--10-------------------------------------
D|---------------------------------------------------
A|8---8---8---8--------------------------------------
E|---------------------------------------------------

Calm, Collected and Commanding
(Top marks for not tryin')
You leave the other story standing
With your renditions and jokes
Bet there's hundreds of blokes
That have wept 'cos you've stolen their...

(Variação do Riff 1 em Oitavas + Riff 3)

Thunder
Are you putting us under
'Cos we can't take our eyes
Off the t-shirt and ties combination
Well, see you later, innovator!

(Pausa)

(Introdução - Parte 2)
Composição de Alex Turner / Arctic Monkeys
Colaboração e revisão:
103.878 exibições
    • ½ Tom
    • A
    • Bb
    • B
    • C
    • Db
    • D
    • Eb
    • E
    • F
    • F#
    • G
    • Ab
  • Adicionar à lista

    0 comentários

    Ver todos os comentários

    Conseguiu tocar?

    19 Tocaram 1 Ainda não

    Grave um vídeo tocando Brianstorm e nos envie!

    00:00 / 00:00
    Outros vídeos desta música
    Repetir Qualidade Automático
    Outros vídeos desta música
    00:00 / 00:00
    Automático
    Capítulos
    • Início
    • Tocando a música
    • Configurações pedaleira
    • Tocando Introdução e Riff 1
    • Ensinando Introdução e Riff 1
    • Tocando Primeira Parte
    • Ensinando Primeira Parte e Riff 2
    • Tocando Segunda Parte
    • Ensinando Segunda Parte (Riff 3)
    • Tocando Terceira Parte
    • Ensinando Terceira Parte (Riff 4 e 5)
    • Tocando trecho final
    • Encerramento

    Cifra Club Pro

    Aproveite o Cifra Club com benefícios exclusivos e sem anúncios
    Cifra Club Pro
    Aproveite o Cifra Club com benefícios exclusivos e sem anúncios
    OK