Cifra Club

Aprenda

Choo Choo

Arctic Monkeys

Cifra: Versão 2 (violão e guitarra)
Quer fazer aulas de música com a gente? Responda essas perguntas
e nos ajude nesse projeto! →
tom: A


Tabbed by: skatersic666
Email: *

Tuning: STANDARD (E A D G B e)

This is tabbed out for guitar one and guitar two.
Listen to the track to get the strumming and timing correct.

Any correcton i will be happy to change.

THE OUTRO IS WAY OFF BUT DOTN COMMENT ON THE CRAPPYNESS OF IT.
I TRIED TO TAB IT, THE REST OF THTE TAB IS FINE.

----------------------------------------------------------------------
----------------------------------------------------------------------
:INTRO:

 GUITAR ONE
     Yea       N.C   | N.C                                          x14             
|--------------------|-------------------------------------------------|
|--------------------|-------------------------------------------------|
|--------------------|-------------------------------------------------|
|--------------------|-------------------------------------------------|
|--------------------|-------------------------------------------------|
|--------------14\-9-|-14-12-13--9-7-9----14-12-13--9-7-9--------------|
|
|GUITAR TWO          |
|-9-9------9-9-------|-9-9----------------9-9--------------------------|
|-9-9------9-9-------|-9-9----------------9-9--------------------------|
|-9-9------9-9-------|-9-9----------------9-9--------------------------|
|--------------------|-------------------------------------------------|
|--------------------|-------------------------------------------------|
|--------------------|-------------------------------------------------|


:VERSE ONE:
 N.C
 My baby wants to drive the train   but dont you let her, dont you . tracks
|----------------------------------------------------------------------|
|----------------------------------------------------------------------|
|----------------------------------------------------------------------|
|----------------------------------------------------------------------|
|----------------------------------------------------------------------|
|14-12-13--9-7-9---14-12-13--9-7-9----14-12-13--9-7-9---14-12-13--9-7-9|
|
|
|9-9---------------9-9----------------9-9---------------9-9------------|
|9-9---------------9-9----------------9-9---------------9-9------------|
|9-9---------------9-9----------------9-9---------------9-9------------|
|----------------------------------------------------------------------|
|----------------------------------------------------------------------|
|----------------------------------------------------------------------|

 N.C
                                                            I said my 
|----------------------------------------------------------------------|
|----------------------------------------------------------------------|
|----------------------------------------------------------------------|
|----------------------------------------------------------------------|
|----------------------------------------------------------------------|
|14-12-13--9-7-9---14-12-13--9-7-9----14-12-13--9-7-9---14-12-13--9-7-9|
|
|
|9-9---------------9-9----------------9-9---------------9-9------------|
|9-9---------------9-9----------------9-9---------------9-9------------|
|9-9---------------9-9----------------9-9---------------9-9------------|
|----------------------------------------------------------------------|
|----------------------------------------------------------------------|
|----------------------------------------------------------------------|

 N.C
 baby wants ..  the train          Well all aboard yeah & dont ... gap
|----------------------------------------------------------------------|
|----------------------------------------------------------------------|
|----------------------------------------------------------------------|
|----------------------------------------------------------------------|
|----------------------------------------------------------------------|
|14-12-13--9-7-9---14-12-13--9-7-9----14-12-13--9-7-9---14-12-13--9-7-9|
|
|
|9-9---------------9-9----------------9-9---------------9-9------------|
|9-9---------------9-9----------------9-9---------------9-9------------|
|9-9---------------9-9----------------9-9---------------9-9------------|
|----------------------------------------------------------------------|
|----------------------------------------------------------------------|
|----------------------------------------------------------------------|


:BRIDGE: (Both Guitars)
 C#5                              C#5
                 Dont you let her               Dont you know
|----------------------------------------------------------------------|
|----------------------------------------------------------------------|
|----------------------------------------------------------------------|
|-11-11--11-11-11\----------------11-11--11-11-11\---------------------|
|-11-11--11-11-11\----------------11-11--11-11-11\---------------------|
|-9--9---9--9--9-\----------------9--9---9--9--9-\---------------------|

  C#5                            C#5                 B5
                 Sick & tired of
|----------------------------------------------------------------------|
|----------------------------------------------------------------------|
|----------------------------------------------------------------------|
|-11-11--11-11-11\---------------11-11--11-11-11--11-9-9--9-9-9--9-----|
|-11-11--11-11-11\---------------11-11--11-11-11--11-9-9--9-9-9--9-----|
|-9--9---9--9--9-\---------------9--9---9--9--9---9--7-7--7-7-7--7-----|

  C#5                    C#5
                                            Being in the background 
|----------------------------------------------------------------------|
|----------------------------------------------------------------------|
|----------------------------------------------------------------------|
|-11-11--11-11-11--11----11-11--11-11-11\------------------------------|
|-11-11--11-11-11--11----11-11--11-11-11\------------------------------|
|-9--9---9--9--9---9-----9--9---9--9--9-\------------------------------|

 C#5                              C#5
                    The passenger                     Let her drive the
|----------------------------------------------------------------------|
|----------------------------------------------------------------------|
|----------------------------------------------------------------------|
|-11-11--11-11-11\----------------11-11--11-11-11\---------------------|
|-11-11--11-11-11\----------------11-11--11-11-11\---------------------|
|-9--9---9--9--9-\----------------9--9---9--9--9-\---------------------|

  C#5                B5             C#5
 Train________________________________ yeah________
|----------------------------------------------------------------------|
|----------------------------------------------------------------------|
|----------------------------------------------------------------------|
|11-11--11-11-11--11-9-9--9-9-9--9--11-11--11-11-11--11----------------|
|11-11--11-11-11--11-9-9--9-9-9--9--11-11--11-11-11--11----------------|
|9--9---9--9--9---9--7-7--7-7-7--7--9--9---9--9--9---9-----------------|


:CHORUS: Both Guitars (One gutiar could play it as power chords)
(You can use power chords for this bit, jst use the roots notes below)

 N.C
|----------------------------------------------------------------------|
|----------------------------------------------------------------------|
|----------------------------------------------------------------------|
|----------------------------------------------------------------------|
|----------------------------------------------------------------------|
|--9----9---14--12---12--12---12--12--12--9---7----9-------9-/14--12---|

|----------------------------------------------------------------------|
|----------------------------------------------------------------------|
|----------------------------------------------------------------------|
|----------------------------------------------------------------------|
|----------------------------------------------------------------------|
|-12--12--12--9\7---9----9---14--12---12--12---12--12--12--9---7----9--|

|----------------------------------------------------------------------|
|----------------------------------------------------------------------|
|----------------------------------------------------------------------|
|----------------------------------------------------------------------|
|----------------------------------------------------------------------|
|-9-/14-12----12--12--12--9-7---9---LET NOTE SUSTAIN-------------------|

:SOLO: Guitar One
|---------------------------------------------------------------------|
|---------------------------------------------------------------------|
|-------------------------------------------------------7/14\7--------|
|-----------------------------------------------7/12\7----------------|
|----------------------------------------7/13\7----------------7/12\7-|
|-/7-9-12-12-12-14--14b(15)r-12b======\-------------------------------|


:VERSE TWO:
 N.C
                                                                   Shes...
|----------------------------------------------------------------------|
|----------------------------------------------------------------------|
|----------------------------------------------------------------------|
|----------------------------------------------------------------------|
|----------------------------------------------------------------------|
|14-12-13--9-7-9---14-12-13--9-7-9----14-12-13--9-7-9---14-12-13--9-7-9|
|
|
|9-9---------------9-9----------------9-9---------------9-9------------|
|9-9---------------9-9----------------9-9---------------9-9------------|
|9-9---------------9-9----------------9-9---------------9-9------------|
|----------------------------------------------------------------------|
|----------------------------------------------------------------------|
|----------------------------------------------------------------------|

 .. from platform four               Make your way down .. door ... five
|----------------------------------------------------------------------|
|----------------------------------------------------------------------|
|----------------------------------------------------------------------|
|----------------------------------------------------------------------|
|----------------------------------------------------------------------|
|14-12-13--9-7-9---14-12-13--9-7-9----14-12-13--9-7-9---14-12-13--9-7-9|
|
|
|9-9---------------9-9----------------9-9---------------9-9------------|
|9-9---------------9-9----------------9-9---------------9-9------------|
|9-9---------------9-9----------------9-9---------------9-9------------|
|----------------------------------------------------------------------|
|----------------------------------------------------------------------|
|----------------------------------------------------------------------|

                                                               I said    
|----------------------------------------------------------------------|
|----------------------------------------------------------------------|
|----------------------------------------------------------------------|
|----------------------------------------------------------------------|
|----------------------------------------------------------------------|
|14-12-13--9-7-9---14-12-13--9-7-9----14-12-13--9-7-9---14-12-13--9-7-9|
|
|
|9-9---------------9-9----------------9-9---------------9-9------------|
|9-9---------------9-9----------------9-9---------------9-9------------|
|9-9---------------9-9----------------9-9---------------9-9------------|
|----------------------------------------------------------------------|
|----------------------------------------------------------------------|
|----------------------------------------------------------------------|
 .. from platform four               Theve decided    that there .. dri-
|----------------------------------------------------------------------|
|----------------------------------------------------------------------|
|----------------------------------------------------------------------|
|----------------------------------------------------------------------|
|----------------------------------------------------------------------|
|14-12-13--9-7-9---14-12-13--9-7-9----14-12-13--9-7-9---14-12-13--9-7-9|
|
|
|9-9---------------9-9----------------9-9---------------9-9------------|
|9-9---------------9-9----------------9-9---------------9-9------------|
|9-9---------------9-9----------------9-9---------------9-9------------|
|----------------------------------------------------------------------|
|----------------------------------------------------------------------|
|----------------------------------------------------------------------|


:BRIDGE: (Both Guitars)
 C#5                              C#5
 ve               Dont you let her               Dont you know
|----------------------------------------------------------------------|
|----------------------------------------------------------------------|
|----------------------------------------------------------------------|
|-11-11--11-11-11\----------------11-11--11-11-11\---------------------|
|-11-11--11-11-11\----------------11-11--11-11-11\---------------------|
|-9--9---9--9--9-\----------------9--9---9--9--9-\---------------------|

  C#5                            C#5                 B5
                 Sick & tired of
|----------------------------------------------------------------------|
|----------------------------------------------------------------------|
|----------------------------------------------------------------------|
|-11-11--11-11-11\---------------11-11--11-11-11--11-9-9--9-9-9--9-----|
|-11-11--11-11-11\---------------11-11--11-11-11--11-9-9--9-9-9--9-----|
|-9--9---9--9--9-\---------------9--9---9--9--9---9--7-7--7-7-7--7-----|

  C#5                    C#5
                                            Being in the background 
|----------------------------------------------------------------------|
|----------------------------------------------------------------------|
|----------------------------------------------------------------------|
|-11-11--11-11-11--11----11-11--11-11-11\------------------------------|
|-11-11--11-11-11--11----11-11--11-11-11\------------------------------|
|-9--9---9--9--9---9-----9--9---9--9--9-\------------------------------|

 C#5                              C#5
                    The passenger                     Let her drive the
|----------------------------------------------------------------------|
|----------------------------------------------------------------------|
|----------------------------------------------------------------------|
|-11-11--11-11-11\----------------11-11--11-11-11\---------------------|
|-11-11--11-11-11\----------------11-11--11-11-11\---------------------|
|-9--9---9--9--9-\----------------9--9---9--9--9-\---------------------|

  C#5                B5             C#5
 Train________________________________ yeah________
|----------------------------------------------------------------------|
|----------------------------------------------------------------------|
|----------------------------------------------------------------------|
|11-11--11-11-11--11-9-9--9-9-9--9--11-11--11-11-11--11----------------|
|11-11--11-11-11--11-9-9--9-9-9--9--11-11--11-11-11--11----------------|
|9--9---9--9--9---9--7-7--7-7-7--7--9--9---9--9--9---9-----------------|


:CHORUS: Both Guitars (One gutiar could play it as power chords)
(You can use power chords for this bit, jst use the roots notes below)

 N.C
|----------------------------------------------------------------------|
|----------------------------------------------------------------------|
|----------------------------------------------------------------------|
|----------------------------------------------------------------------|
|----------------------------------------------------------------------|
|--9----9---14--12---12--12---12--12--12--9---7----9-------9-/14--12---|

|----------------------------------------------------------------------|
|----------------------------------------------------------------------|
|----------------------------------------------------------------------|
|----------------------------------------------------------------------|
|----------------------------------------------------------------------|
|-12--12--12--9\7---9----9---14--12---12--12---12--12--12--9---7----9--|

|----------------------------------------------------------------------|
|----------------------------------------------------------------------|
|----------------------------------------------------------------------|
|----------------------------------------------------------------------|
|----------------------------------------------------------------------|
|-9-/14-12----12--12--12--9-7---9---LET NOTE SUSTAIN-------------------|

:OUTRO:
|----------------------------------------------------------------------|
|----------------------------------------------------------------------|
|----------------------------------------------------------------------|
|----------------------------------------------------------------------|
|----------------------------------------------------------------------|
|-===================LET THE 'B' NOTE SUSTAIN=========================-|
|
|   B5                                   B5
|----------------------------------------------------------------------|
|----------------------------------------------------------------------|
|----------------------------------------------------------------------|
|---11-----------------------------------11----------------------------|
|---11-----------------------------------11----------------------------|
|---9------------------------------------9-----------------------------|

|----------------------------------------------------------------------|
|----------------------------------------------------------------------|
|----------------------------------------------------------------------|
|----------------------------------------------------------------------|
|----------------------------------------------------------------------|
|-9--12--14-14--16-----9--12--14-14--16------9--12-12--9--7--9---------|
|
|
|----9-9------------------9-9-------------------9-9--------------------|
|----9-9------------------9-9-------------------9-9--------------------|
|----9-9------------------9-9-------------------9-9--------------------|
|----------------------------------------------------------------------|
|----------------------------------------------------------------------|
|----------------------------------------------------------------------|

|----------------------------------------------------------------------|
|----------------------------------------------------------------------|
|----------------------------------------------------------------------|
|--------------------------------------------14--16-18b18b18b-15-13----|
|-------------------------------------14--16------------------------15-|
|-9--12-12--9--7--9------9--12--14-16----------------------------------|

|----------------------------------------------------------------------|
|----------------------------------------------------------------------|
|----------------------------------------------------------------------|
|-13---15--17--18b--18b--18b--18b--18b--18b--15b(16)-------------------|
|----------------------------------------------------------------------|
|----------------------------------------------------------------------|

|----------------------------------------------------------------------|
|----------------------------------------------------------------------|
|----------------------------------------------------------------------|
|----------------12--15--17--18b--18b--18b--15--14--12-----------------|
|------------------------------------------------------14--------------|
|-9-9---14--12---------------------------------------------------------|

|----------------------------------------------------------------------|
|----------------------------------------------------------------------|
|----------------------------------------------------------------------|
|-----------------------------------------------------18b--18b---------|
|--------------------------------------------14--15--------------------|
|-9-9---14--12-----14-12-14-12---14--14--16----------------------------|

 N.C
|----------------------------------------------------------------------|
|----------------------------------------------------------------------|
|----------------------------------------------------------------------|
|----------------------------------------------------------------------|
|----------------------------------------------------------------------|
|--9----9---14--12---12--12---12--12--12--9---7----9-------------------|

|----------------------------------------------------------------------|
|----------------------------------------------------------------------|
|----------------------------------------------------------------------|
|----------------------------------------------------------------------|
|----------------------------------------------------------------------|
|--9----9---14--12---12--12---12--12--12--9---7----9-------------------|

|----------------------------------------------------------------------|
|----------------------------------------------------------------------|
|----------------------------------------------------------------------|
|----------------------------------------------------------------------|
|----------------------------------------------------------------------|
|--9----9---14--12---12--12---12--12--12--9---7----9-------------------|

|----------------------------------------------------------------------|
|----------------------------------------------------------------------|
|----------------------------------------------------------------------|
|----------------------------------------------------------------------|
|----------------------------------------------------------------------|
|--9----9---14--12---12--12---12--12--12--12====-----------------------|

  C#5                     B5
|----------------------------------------------------------------------|
|----------------------------------------------------------------------|
|----------------------------------------------------------------------|
|-11-x--11-x--11-x--11----9--------------------------------------------|
|-11-x--11-x--11-x--11----9--------------------------------------------|
|-9--x--9--x--9--x--9-----7--------------------------------------------|



THE OUTRO IS WAY OFD BUT I TRIED TO TAB IT OUT. SO DONT COMMENT
ON THE CRAPPYNESS OF THE OURTO! BUT I TRIED TO TAB IT.


IF YOU LIKE THIS TAB PLEASE RATE IT

THANK YOU.


| /  slide up
| \  slide down
| h  hammer-on
| p  pull-off
| ~  vibrato
| +  harmonic
| x  Mute note
| =  Hold note
 P.M Palm Mute
============================================================================
Composição de Bruno Franke
970 exibições
    • ½ Tom
    • A
    • Bb
    • B
    • C
    • Db
    • D
    • Eb
    • E
    • F
    • F#
    • G
    • Ab
  • Adicionar à lista

    0 comentários

    Ver todos os comentários

    Conseguiu tocar?

    0 Tocaram 0 Ainda não

    Grave um vídeo tocando Choo Choo e nos envie!

    00:00 / 00:00
    Outros vídeos desta música
    Repetir Qualidade Automático
    Outros vídeos desta música
    00:00 / 00:00
    Automático

    Cifra Club Pro

    Aproveite o Cifra Club com benefícios exclusivos e sem anúncios
    Cifra Club Pro
    Aproveite o Cifra Club com benefícios exclusivos e sem anúncios
    OK