Cifra Club

Cornerstone

Arctic Monkeys

Tab de baixo: Principal
G|------------------------------------------|
D|------------------------------------------|
A|--------------------------------6----3----|
E|5~--5-5---5~--5-5---5~--5-5---6----3---1--|

G|----------------------|
D|----------------------|
A|------------6----3----|
E|5~--5-5---6----3---1--|

G|----------------------------------------------------------------|
D|------------------------------------------------8\--------------|
A|-----2---7\-------2---/8-7--6~----3~-------4-/9-------4-/9-11\--|
E|4~-4---6-----4~-4---6----------6~----3~--5----------5-----------|

G|---------------------|
D|---------------------|
A|-----------6----3----|x2
E|5~--5-5--6----3---1--|

G|-------------------------------------------------------------|
D|------------------------------------------------8\-----------|
A|-----2---7\-------2---/8-7--6~----3~-------4-/9-------4-6----|
E|4~-4---6-----4~-4---6----------6~----3~--5----------5-----5--|

G|-------------------------------------------------------------|
D|-------------------------------------------------------------|
A|4-4--4-4--4-4--6-6--------------------------------8-888-888--|
E|--------------------5-4-2-4-5--6-6--6-6--6-6--6-6------------|

G|--------------------------------|
D|--------------------------------|
A|4--4-4--4-4---------------------|
E|------------2-4-5--6--6-6--6-6--|

G|------------------|
D|------------------|
A|---------6-----3--|
E|5~--5-5----6-3----|

G|----------------------------------------------|
D|----------------------------------------------|
A|-----------6----3-----------/8-7-6~----3~-----|
E|5~--5-5--6----3---1--5~--5-5--------6~----3~--|

G|--------------------------------------|
D|--------------------------------------|
A|-----2---7\-------2---/8-7--6~----3~--|
E|4~-4---6-----4~-4---6-----------------|

G|--------------------------------------------------------------------|
D|---------8\-----------------4-----8\----------------------4-----8\--|
A|4--4--9------------------4-----6-----------------------4-----6------|
E|-------------5--5--5--6---------------x-5-x-5-x-7-x-5---------------|

G|-----------------------------------------------|
D|-------------------------------------------8\--|
A|-----------------------------8~--8-7-8-/11-----|
E|5~--5-5-2-4-5--7~--7-7-5-7-8-------------------|

G|-------------------------------------------------------------|
D|-------------------------------------------------------------|
A|4-4--4-4--4-4--6-6--------------------------------8-888-888--|
E|--------------------5-4-2-4-5--6-6--6-6--6-6--6-6------------|

G|-------------------------------------------------|
D|-------------------------------------------------|
A|4--4-4--4-4--------------------------------------|
E|------------2-4-5--6-6--6-6--6-6--6-6--6-6--6-6--|

G|----------------------------------------------------------|
D|---------------------------------------8-8\---------------|
A|---2-2-----x/7\--6~----3~-------4-/9-9-------6~----3~-----|
E|4~--4-4-6-6---------6~----3~--5-----------------6~----3~--|

G|-------------------------------------------------|
D|-------7---6----------------------------7-6---6--|
A|---------6---4---3~-3-3-------4--5~-5-5-----6----|
E|4~-4-4------------------2-4-5--------------------|

G|----------------------------------------------------------|
D|-------7---6----------------------------------------------|
A|---------6---4--6~----3~-------2-2-----x/7\--6~----3~-----|
E|4~-4-4-------------6~----3~-4~--4-4-6-6---------6~----3~--|

G|--------------------------------------|
D|--------------------------------------|
A|-----2---7\-------2---/8-7--6~--------|
E|4~-4---6-----4~-4---6-----------------|
00:00 / 00:00
Outros vídeos desta música
Repetir
Outros vídeos desta música
Composição de Alex Turner / Arctic Monkeys
Colaboração e revisão:
  • Lucas Idalino
1.336 exibições

0 comentários

Ver todos os comentários

Conseguiu tocar?

1 Tocaram 0 Ainda não

Grave um vídeo tocando Cornerstone e nos envie!

Entre para oCifra Club PRO

Tenha acesso a benefícios exclusivos no App e no Site

  • Chega de anúncios

  • Prioridade de compra em lançamentos

  • Mais recursos no app do Afinador

  • Atendimento Prioritário

  • Descontos nos produtos Cifra Club

  • Ajude a produzir mais conteúdo

00:00 / 00:00

Cifra Club Pro

Aproveite o Cifra Club com benefícios exclusivos e sem anúncios
Cifra Club Pro
Aproveite o Cifra Club com benefícios exclusivos e sem anúncios
OK