Cifra Club

A Filha

Armandinho

Cifra: Versão 2 (violão e guitarra)
tom: Eb
Riff 1: e|----------------------------------|
        B|----------------------------------|
        G|----------------------------------|
        D|-----------1--------------3-------|
        A|-1----3-------3----1---3----------|
        E|----------------------------------|
        
Riff 2: e|----------------------------------|
        B|----------4-------------6---------|
        G|---3---5-----5----3--5------------|
        D|----------------------------------|
        A|----------------------------------|
        E|----------------------------------|

Riff 3: e|-------13-11-10-------------------|
        B|----------------11----------------|
        G|----------------------------------|
        D|----------------------------------|
        A|----------------------------------|
        E|----------------------------------|

Riff 4: e|----------------------------------|
        B|----8-9-11-8----8-----------------|
        G|-------------10-------------------|
        D|----------------------------------|
        A|----------------------------------|
        E|----------------------------------|

Riff 5: e|----------------------------------|
        B|----8-9-11-8------8---------------|
        G|-------------10-8-----------------|
        D|----------------------------------|
        A|----------------------------------|
        E|----------------------------------|

Riff 6: e|----------------------------------|
        B|----------------------------------|
        G|-----8/6-8/6-8-5-8----------------|
        D|----------------------------------|
        A|----------------------------------|
        E|----------------------------------|

Intro:
       (Eb7+)                      (Eb7+)
e|-6--|-6---------|-6-------------|-6---------|-10---|
B|---8|---8-6-----|---8-6---------|---8-6-----|----11|
G|----|-------8---|-------8----8-8|-------8---|------|
D|----|---------10|---------10----|---------10|------|
A|----|-----------|---------------|-----------|------|
E|----|-----------|---------------|-----------|------|

Eb7+                               Ab7+
Quando me da uma louca eu saio pra rua pra beijar na boca
Eb7+                             Ab7+                           Eb7+ Ab7+ (riff 1)
Uma calça desbotada e a cabeça virada pra chamar a atenção de você...       
        Eb7+  Ab7+ (riff 2)
Só de você.....

   Eb7+                          Ab7+      (riff 4)
Eu nunca saio da linha só saio sozinha não tenho ninguém 
  Eb7+                                    Ab7+
Mamãe as vezes reclama que eu não vou pra cama com alguém 
        Eb7+   Ab7+         (riff 6)
Ela não sabe a filha que tem
        Eb7+   Ab7+         (riff 6)
Ela não sabe a filha que tem 

Eb7+                               Ab7+
Quando me da uma louca eu saio pra rua pra beijar na boca
Eb7+                             Ab7+                           Eb7+ Ab7+ (riff 1)
Uma calça desbotada e a cabeça virada pra chamar a atenção de você...
        Eb7+ Ab7+ (riff 2 + riff 3)
Só de você.....
Eb7+                                   Ab7+                   (riff 3)
Quando se sente o que sente se for diferente tem sempre um porquê
  Eb7+                            Ab7+
Mamãe as vezes reclama mas essa semana eu vou ter que dizer 
            Eb7+   Ab7+         (riff 7)
Que ela não sabe a filha que tem
        Eb7+   Ab7+        
Ela não sabe a filha que tem
Eb7+                       Ab7+
mama mama mama mama mamama mamamama
Eb7+                       Ab7+
mama mama mama mama mamama mamamama

Eb7+                               Ab7+    (riff 5)
Quando me da uma louca eu saio pra rua pra beijar na boca
 Eb7+                             Ab7+                           Eb7+ Ab7+  (riff 1)
Numa calça desbotada e a cabeça virada pra chamar a atenção de você...
        Eb7+ Ab7+ (riff 2)
Só de você.....
  Eb7+                           Ab7+      (riff 5)
Eu nunca saio da linha só saio sozinha não tenho ninguém 
  Eb7+                                    Ab7+
Mamãe as vezes reclama que eu não vou pra cama com alguém 
        Eb7+   Ab7+         (riff 7)
Ela não sabe a filha que tem
        Eb7+   Ab7+         (riff 7)
Ela não sabe a filha que tem 

Eb7+                       Ab7+
mama mama mama mama mamama mamamama
Eb7+                       Ab7+     (2x)
mama mama mama mama mamama mamamama

(Solo)
e|----11-11-11--10--8---------------------------------------------|
B|--------------------11--8-9---8-9-8--6-8-6---4-4---4-6--4-6/8---|
G|----------------------------------------------------------------|
D|----------------------------------------------------------------|
A|----------------------------------------------------------------|
E|----------------------------------------------------------------|

e|---------------------------------------------13-11-10-----------|
B|-------6-6---4-4-4------------------------------------11--------|
G|----------------------5--3--3---3/5-----------------------------|
D|----------------------------------------------------------------|
A|----------------------------------------------------------------|
E|----------------------------------------------------------------|
        Eb7+   Ab7+         (riff 7)
Ela não sabe a filha que tem
        Eb7+   Ab7+         (riff 7)
Ela não sabe a filha que tem
        Eb7+                 Ab7+         (riff 7)
Ela não sabe, ela não sabe a filha que tem
        Eb7+   Ab7+         
Ela não sabe a filha que tem
Eb7+                       Ab7+
mama mama mama mama mamama mamamama
Eb7+                       Ab7+       (2x)
mama mama mama mama mamama mamamama
        Eb7+
Ela não sabe a filha que tem...
00:00 / 00:00
Outros vídeos desta música
Repetir
Outros vídeos desta música
Composição de Armandinho
Colaboração e revisão:
  • Vinícius Kawase
36.539 exibições
    • ½ Tom
    • A
    • Bb
    • B
    • C
    • Db
    • D
    • Eb
    • E
    • F
    • F#
    • G
    • Ab
  • Adicionar à lista

    0 comentários

    Ver todos os comentários

    Conseguiu tocar?

    0 Tocaram 0 Ainda não

    Grave um vídeo tocando A Filha e nos envie!

    Entre para oCifra Club PRO

    Tenha acesso a benefícios exclusivos no App e no Site

    • Chega de anúncios

    • Prioridade de compra em lançamentos

    • Mais recursos no app do Afinador

    • Atendimento Prioritário

    • Descontos nos produtos Cifra Club

    • Ajude a produzir mais conteúdo

    00:00 / 00:00

    Cifra Club Pro

    Aproveite o Cifra Club com benefícios exclusivos e sem anúncios
    Cifra Club Pro
    Aproveite o Cifra Club com benefícios exclusivos e sem anúncios
    OK