Cifra Club

Sentimento

Armandinho

Cifra: Principal
exibições 442.008
Tom: E
Intro:(E  G#m7  A  B7) Mais solo.

Introdução solo:

E|------7~---------------------------------------7~--7^--------------
B|-7/9-----7~--7/9--5--7--5--7^--5--4--5--77/9-----------------------
G|-------------------------------------------------------------------
D|-------------------------------------------------------------------
A|-------------------------------------------------------------------
E|-------------------------------------------------------------------

E|-------------------------------------------------------------------
B|-7--7br--7--7^--7--5--7--5--7--5--7^--5--4--5----------------------
G|-------------------------------------------------------------------
D|-------------------------------------------------------------------
A|-------------------------------------------------------------------
E|-------------------------------------------------------------------

E|-------7~--7^----------------------------------------------------7-
B|-77/9----------7--7^--7--7^--7--5--7--5--7--5--7^--7--5--7br--5----
G|-------------------------------------------------------------------
D|-------------------------------------------------------------------
A|-------------------------------------------------------------------
E|-------------------------------------------------------------------

  E            F#m                     E                   
Sentimento,  você não sabe o que se passa aqui por dentro
F#m              E                  F#m                   E           
Sentimento pra mim é documento,  de alguém  que tem muito amor pra dar, 
F#m
muito amor pra dar

E              F#m                   E       
Sentimento,    ta no reggae ta no amor pelo instrumento 
 F#m                 E   
Por favor ve se liberte o sentimento
F#m                               E                      F#m
O que eu não quero é ver o seu mundo sem amor,    seu mundo sem amor

E                    G#m7              A                   B7  
Eu    quando te encontrar    quero falar     de tudo q eu sinto
E                    G#m7              A                   B7  
Sei     que posso me perder,    entrar     nesse teu labirinto

A7+               G#m7 
Voce me parou   pedindo meu amor
A7+                      G#m7
Mandou eu encostar,    você q me encostou
A7+                    G#m7                  F#m        
Pediu meu documento   mas só tenho sentimento e eu dou

B7                          E           
Eu vou te subornar com meu amor
F#m                         E
Eu vou te subornar com meu amor
F#m                         E
Eu vou te subornar com meu amor
F#m                         E
Eu vou te subornar com meu amor

(E  G#m7  A  B7)mais solo 1.

solo 1:

E|------7~---------------------------------------7~--7^--------------
B|-7/9-----7~--7/9--5--7--5--7^--5--4--5--77/9-----------------------
G|-------------------------------------------------------------------
D|-------------------------------------------------------------------
A|-------------------------------------------------------------------
E|-------------------------------------------------------------------

E|-------7~--7^----------------------------------------------------7-
B|-77/9----------7--7^--7--7^--7--5--7--5--7--5--7^--7--5--7br--5----
G|-------------------------------------------------------------------
D|-------------------------------------------------------------------
A|-------------------------------------------------------------------
E|-------------------------------------------------------------------
Acordes para:
    Composição: ArmandinhoColaboração e revisão:
    • Gabriel Alves
    • Igor Silva

    0 comentários

      mostrar mais comentários

      Conseguiu tocar?

      18tocaram0ainda não

      Grave um vídeo tocando Sentimento e mande pra gente!

      00:00 / 00:00
      outros vídeos desta música
      repetirqualidadeautomática
      Outro vídeos desta música
        00:00 / 00:00
        automática
        OK